ISO-10303-21;
HEADER;
FILE_DESCRIPTION (( 'STEP AP203' ),
    '1' );
FILE_NAME ('f2a8.STEP',
    '2022-06-20T09:19:09',
    ( '' ),
    ( '' ),
    'SwSTEP 2.0',
    'SolidWorks 2019',
    '' );
FILE_SCHEMA (( 'CONFIG_CONTROL_DESIGN' ));
ENDSEC;

DATA;
#1 = CARTESIAN_POINT ( 'NONE',  ( 0.000000000000000000, 0.000000000000000000, 10.00000000000000000 ) ) ;
#2 = DIRECTION ( 'NONE',  ( 1.000000000000000000, 0.000000000000000000, 0.000000000000000000 ) ) ;
#3 = DIRECTION ( 'NONE',  ( 0.000000000000000000, 0.000000000000000000, 1.000000000000000000 ) ) ;
#4 = LINE ( 'NONE', #191, #143 ) ;
#5 = PRODUCT_DEFINITION ( 'NEZNÁMÝ', '', #171, #197 ) ;
#6 = CARTESIAN_POINT ( 'NONE',  ( 0.000000000000000000, 0.000000000000000000, 110.0000000000000000 ) ) ;
#7 = CARTESIAN_POINT ( 'NONE',  ( 0.000000000000000000, 0.000000000000000000, 10.20000000000000107 ) ) ;
#8 = CARTESIAN_POINT ( 'NONE',  ( 0.000000000000000000, 0.000000000000000000, 110.0000000000000000 ) ) ;
#9 = FACE_OUTER_BOUND ( 'NONE', #165, .T. ) ;
#10 = ADVANCED_FACE ( 'NONE', ( #74 ), #241, .T. ) ;
#11 = CIRCLE ( 'NONE', #186, 12.50000000000000000 ) ;
#12 = APPROVAL_STATUS ( 'not_yet_approved' ) ;
#13 = ORIENTED_EDGE ( 'NONE', *, *, #52, .F. ) ;
#14 = CALENDAR_DATE ( 2022, 20, 6 ) ;
#15 = ORIENTED_EDGE ( 'NONE', *, *, #212, .T. ) ;
#16 = PERSON_AND_ORGANIZATION_ROLE ( 'creator' ) ;
#17 = EDGE_LOOP ( 'NONE', ( #142, #69 ) ) ;
#18 = AXIS2_PLACEMENT_3D ( 'NONE', #251, #37, #64 ) ;
#19 = VERTEX_POINT ( 'NONE', #54 ) ;
#20 = CIRCLE ( 'NONE', #209, 12.50000000000000000 ) ;
#21 = DIRECTION ( 'NONE',  ( -0.000000000000000000, -0.000000000000000000, -1.000000000000000000 ) ) ;
#22 = DIRECTION ( 'NONE',  ( 0.000000000000000000, 0.000000000000000000, 1.000000000000000000 ) ) ;
#23 = FACE_OUTER_BOUND ( 'NONE', #164, .T. ) ;
#24 = CC_DESIGN_APPROVAL ( #83, ( #33 ) ) ;
#25 = DIRECTION ( 'NONE',  ( 1.000000000000000000, 0.000000000000000000, 0.000000000000000000 ) ) ;
#26 = DIRECTION ( 'NONE',  ( 0.000000000000000000, 0.000000000000000000, 1.000000000000000000 ) ) ;
#27 = DIRECTION ( 'NONE',  ( 0.000000000000000000, 0.000000000000000000, 1.000000000000000000 ) ) ;
#28 = CLOSED_SHELL ( 'NONE', ( #95, #10, #31, #30, #183, #163, #300, #118, #45 ) ) ;
#29 =( LENGTH_UNIT ( ) NAMED_UNIT ( * ) SI_UNIT ( .MILLI., .METRE. ) );
#30 = ADVANCED_FACE ( 'NONE', ( #23 ), #240, .T. ) ;
#31 = ADVANCED_FACE ( 'NONE', ( #145 ), #98, .T. ) ;
#32 = CIRCLE ( 'NONE', #120, 16.00000000000000000 ) ;
#33 = SECURITY_CLASSIFICATION ( '', '', #232 ) ;
#34 = DIRECTION ( 'NONE',  ( 0.000000000000000000, 0.000000000000000000, 1.000000000000000000 ) ) ;
#35 = AXIS2_PLACEMENT_3D ( 'NONE', #1, #287, #25 ) ;
#36 = PRODUCT_RELATED_PRODUCT_CATEGORY ( 'detail', '', ( #293 ) ) ;
#37 = DIRECTION ( 'NONE',  ( 0.000000000000000000, 0.000000000000000000, 1.000000000000000000 ) ) ;
#38 = APPLICATION_PROTOCOL_DEFINITION ( 'international standard', 'config_control_design', 1994, #190 ) ;
#39 = ORIENTED_EDGE ( 'NONE', *, *, #231, .T. ) ;
#40 = APPROVAL_STATUS ( 'not_yet_approved' ) ;
#41 = ORIENTED_EDGE ( 'NONE', *, *, #55, .F. ) ;
#42 = CALENDAR_DATE ( 2022, 20, 6 ) ;
#43 = EDGE_LOOP ( 'NONE', ( #13, #44, #71, #253 ) ) ;
#44 = ORIENTED_EDGE ( 'NONE', *, *, #134, .F. ) ;
#45 = ADVANCED_FACE ( 'NONE', ( #266 ), #277, .F. ) ;
#46 = ORIENTED_EDGE ( 'NONE', *, *, #193, .T. ) ;
#47 = EDGE_CURVE ( 'NONE', #187, #96, #230, .T. ) ;
#48 = DIRECTION ( 'NONE',  ( -1.000000000000000000, 0.000000000000000000, 0.000000000000000000 ) ) ;
#49 = FACE_OUTER_BOUND ( 'NONE', #262, .T. ) ;
#50 = PLANE ( 'NONE',  #75 ) ;
#51 = CIRCLE ( 'NONE', #128, 12.50000000000000000 ) ;
#52 = EDGE_CURVE ( 'NONE', #19, #66, #146, .T. ) ;
#53 = DIRECTION ( 'NONE',  ( -0.000000000000000000, -0.000000000000000000, -1.000000000000000000 ) ) ;
#54 = CARTESIAN_POINT ( 'NONE',  ( 12.50000000000000000, 1.530808498934191521E-15, 110.0000000000000000 ) ) ;
#55 = EDGE_CURVE ( 'NONE', #89, #140, #288, .T. ) ;
#56 = DIRECTION ( 'NONE',  ( -1.000000000000000000, 1.224646799147353207E-16, 0.000000000000000000 ) ) ;
#57 = AXIS2_PLACEMENT_3D ( 'NONE', #294, #22, #290 ) ;
#58 = DIRECTION ( 'NONE',  ( 1.000000000000000000, 0.000000000000000000, 0.000000000000000000 ) ) ;
#59 = DIRECTION ( 'NONE',  ( -0.000000000000000000, -0.000000000000000000, -1.000000000000000000 ) ) ;
#60 = DIRECTION ( 'NONE',  ( 0.000000000000000000, 0.000000000000000000, 1.000000000000000000 ) ) ;
#61 = CC_DESIGN_PERSON_AND_ORGANIZATION_ASSIGNMENT ( #279, #256, ( #293 ) ) ;
#62 = LOCAL_TIME ( 11, 19, 9.000000000000000000, #162 ) ;
#63 = AXIS2_PLACEMENT_3D ( 'NONE', #127, #223, #246 ) ;
#64 = DIRECTION ( 'NONE',  ( 1.000000000000000000, 0.000000000000000000, 0.000000000000000000 ) ) ;
#65 = VERTEX_POINT ( 'NONE', #194 ) ;
#66 = VERTEX_POINT ( 'NONE', #70 ) ;
#67 = SHAPE_DEFINITION_REPRESENTATION ( #242, #108 ) ;
#68 = ORIENTED_EDGE ( 'NONE', *, *, #47, .F. ) ;
#69 = ORIENTED_EDGE ( 'NONE', *, *, #72, .T. ) ;
#70 = CARTESIAN_POINT ( 'NONE',  ( 12.50000000000000000, 1.530808498934191521E-15, 10.20000000000000107 ) ) ;
#71 = ORIENTED_EDGE ( 'NONE', *, *, #275, .T. ) ;
#72 = EDGE_CURVE ( 'NONE', #140, #89, #225, .T. ) ;
#73 = PLANE ( 'NONE',  #152 ) ;
#74 = FACE_OUTER_BOUND ( 'NONE', #304, .T. ) ;
#75 = AXIS2_PLACEMENT_3D ( 'NONE', #269, #26, #153 ) ;
#76 = CIRCLE ( 'NONE', #179, 16.00000000000000000 ) ;
#77 = ORIENTED_EDGE ( 'NONE', *, *, #296, .F. ) ;
#78 = CARTESIAN_POINT ( 'NONE',  ( 0.000000000000000000, 0.000000000000000000, 10.00000000000000000 ) ) ;
#79 = DIRECTION ( 'NONE',  ( 0.000000000000000000, 0.000000000000000000, 1.000000000000000000 ) ) ;
#80 = LOCAL_TIME ( 11, 19, 9.000000000000000000, #188 ) ;
#81 = UNCERTAINTY_MEASURE_WITH_UNIT (LENGTH_MEASURE( 1.000000000000000082E-05 ), #29, 'distance_accuracy_value', 'NONE');
#82 = DIRECTION ( 'NONE',  ( 1.224646799147353207E-16, 1.000000000000000000, -0.000000000000000000 ) ) ;
#83 = APPROVAL ( #12, 'NEURÈENÝ' ) ;
#84 = LINE ( 'NONE', #150, #250 ) ;
#85 = AXIS2_PLACEMENT_3D ( 'NONE', #102, #21, #48 ) ;
#86 = ORIENTED_EDGE ( 'NONE', *, *, #270, .T. ) ;
#87 = APPROVAL_STATUS ( 'not_yet_approved' ) ;
#88 = DATE_AND_TIME ( #14, #62 ) ;
#89 = VERTEX_POINT ( 'NONE', #148 ) ;
#90 = AXIS2_PLACEMENT_3D ( 'NONE', #100, #192, #101 ) ;
#91 = CC_DESIGN_APPROVAL ( #260, ( #5 ) ) ;
#92 = PERSON_AND_ORGANIZATION_ROLE ( 'classification_officer' ) ;
#93 = EDGE_LOOP ( 'NONE', ( #236, #77 ) ) ;
#94 = COORDINATED_UNIVERSAL_TIME_OFFSET ( 1, 0, .AHEAD. ) ;
#95 = ADVANCED_FACE ( 'NONE', ( #167 ), #210, .F. ) ;
#96 = VERTEX_POINT ( 'NONE', #123 ) ;
#97 = ORIENTED_EDGE ( 'NONE', *, *, #231, .F. ) ;
#98 = CYLINDRICAL_SURFACE ( 'NONE', #301, 16.00000000000000000 ) ;
#99 = MANIFOLD_SOLID_BREP ( 'Zaoblit1', #28 ) ;
#100 = CARTESIAN_POINT ( 'NONE',  ( 0.000000000000000000, 0.000000000000000000, 110.0000000000000000 ) ) ;
#101 = DIRECTION ( 'NONE',  ( 1.000000000000000000, 0.000000000000000000, 0.000000000000000000 ) ) ;
#102 = CARTESIAN_POINT ( 'NONE',  ( 0.000000000000000000, 0.000000000000000000, 10.00000000000000000 ) ) ;
#103 = EDGE_CURVE ( 'NONE', #96, #65, #4, .T. ) ;
#104 = CARTESIAN_POINT ( 'NONE',  ( 0.000000000000000000, 0.000000000000000000, 110.0000000000000000 ) ) ;
#105 = DIRECTION ( 'NONE',  ( -0.000000000000000000, -0.000000000000000000, -1.000000000000000000 ) ) ;
#106 = CARTESIAN_POINT ( 'NONE',  ( -12.70000000000000107, 1.555301434917138630E-15, 10.20000000000000107 ) ) ;
#107 = APPROVAL ( #87, 'NEURÈENÝ' ) ;
#108 = ADVANCED_BREP_SHAPE_REPRESENTATION ( 'f2a8', ( #99, #18 ), #273 ) ;
#109 = DIRECTION ( 'NONE',  ( 0.000000000000000000, 0.000000000000000000, 1.000000000000000000 ) ) ;
#110 = APPROVAL_ROLE ( '' ) ;
#111 = AXIS2_PLACEMENT_3D ( 'NONE', #238, #237, #2 ) ;
#112 = APPROVAL_DATE_TIME ( #88, #260 ) ;
#113 = ORIENTED_EDGE ( 'NONE', *, *, #103, .T. ) ;
#114 = PERSON_AND_ORGANIZATION ( #200, #136 ) ;
#115 = APPROVAL_DATE_TIME ( #280, #107 ) ;
#116 = ORIENTED_EDGE ( 'NONE', *, *, #180, .T. ) ;
#117 = CIRCLE ( 'NONE', #90, 12.50000000000000000 ) ;
#118 = ADVANCED_FACE ( 'NONE', ( #49 ), #73, .T. ) ;
#119 = PERSON_AND_ORGANIZATION ( #200, #136 ) ;
#120 = AXIS2_PLACEMENT_3D ( 'NONE', #249, #34, #178 ) ;
#121 = ORIENTED_EDGE ( 'NONE', *, *, #180, .F. ) ;
#122 = DIRECTION ( 'NONE',  ( -0.000000000000000000, -0.000000000000000000, -1.000000000000000000 ) ) ;
#123 = CARTESIAN_POINT ( 'NONE',  ( -16.00000000000000000, 0.000000000000000000, 10.00000000000000000 ) ) ;
#124 = CARTESIAN_POINT ( 'NONE',  ( 0.000000000000000000, 0.000000000000000000, 110.0000000000000000 ) ) ;
#125 = CARTESIAN_POINT ( 'NONE',  ( 0.000000000000000000, 0.000000000000000000, 10.00000000000000000 ) ) ;
#126 = CARTESIAN_POINT ( 'NONE',  ( 12.50000000000000000, 1.530808498934191521E-15, 110.0000000000000000 ) ) ;
#127 = CARTESIAN_POINT ( 'NONE',  ( 0.000000000000000000, 0.000000000000000000, 0.000000000000000000 ) ) ;
#128 = AXIS2_PLACEMENT_3D ( 'NONE', #243, #60, #199 ) ;
#129 = CARTESIAN_POINT ( 'NONE',  ( -12.50000000000000000, 0.000000000000000000, 110.0000000000000000 ) ) ;
#130 = AXIS2_PLACEMENT_3D ( 'NONE', #106, #82, #56 ) ;
#131 = APPROVAL_PERSON_ORGANIZATION ( #284, #83, #184 ) ;
#132 = CARTESIAN_POINT ( 'NONE',  ( -12.50000000000000000, 0.000000000000000000, 10.20000000000000107 ) ) ;
#133 = APPROVAL_ROLE ( '' ) ;
#134 = EDGE_CURVE ( 'NONE', #189, #19, #117, .T. ) ;
#135 = DATE_TIME_ROLE ( 'creation_date' ) ;
#136 = ORGANIZATION ( 'NEURÈENÝ', 'NEURÈENÝ', '' ) ;
#137 = CALENDAR_DATE ( 2022, 20, 6 ) ;
#138 = ORIENTED_EDGE ( 'NONE', *, *, #296, .T. ) ;
#139 = APPLICATION_PROTOCOL_DEFINITION ( 'international standard', 'config_control_design', 1994, #205 ) ;
#140 = VERTEX_POINT ( 'NONE', #291 ) ;
#141 = CC_DESIGN_PERSON_AND_ORGANIZATION_ASSIGNMENT ( #207, #229, ( #171 ) ) ;
#142 = ORIENTED_EDGE ( 'NONE', *, *, #55, .T. ) ;
#143 = VECTOR ( 'NONE', #168, 1000.000000000000000 ) ;
#144 = EDGE_LOOP ( 'NONE', ( #68, #86, #138, #281 ) ) ;
#145 = FACE_OUTER_BOUND ( 'NONE', #144, .T. ) ;
#146 = LINE ( 'NONE', #126, #166 ) ;
#147 = CC_DESIGN_SECURITY_CLASSIFICATION ( #33, ( #171 ) ) ;
#148 = CARTESIAN_POINT ( 'NONE',  ( 12.70000000000000107, 0.000000000000000000, 10.00000000000000000 ) ) ;
#149 = DIRECTION ( 'NONE',  ( 1.000000000000000000, 0.000000000000000000, 0.000000000000000000 ) ) ;
#150 = CARTESIAN_POINT ( 'NONE',  ( 16.00000000000000000, 1.959434878635765131E-15, 10.00000000000000000 ) ) ;
#151 = CARTESIAN_POINT ( 'NONE',  ( 12.70000000000000107, 0.000000000000000000, 10.20000000000000107 ) ) ;
#152 = AXIS2_PLACEMENT_3D ( 'NONE', #124, #3, #217 ) ;
#153 = DIRECTION ( 'NONE',  ( 1.000000000000000000, 0.000000000000000000, -0.000000000000000000 ) ) ;
#154 = DIRECTION ( 'NONE',  ( 0.000000000000000000, -1.000000000000000000, 0.000000000000000000 ) ) ;
#155 = VECTOR ( 'NONE', #105, 1000.000000000000000 ) ;
#156 = PERSON_AND_ORGANIZATION ( #200, #136 ) ;
#157 = CC_DESIGN_PERSON_AND_ORGANIZATION_ASSIGNMENT ( #204, #16, ( #171 ) ) ;
#158 = ORIENTED_EDGE ( 'NONE', *, *, #52, .T. ) ;
#159 = PERSON_AND_ORGANIZATION_ROLE ( 'creator' ) ;
#160 = ORIENTED_EDGE ( 'NONE', *, *, #47, .T. ) ;
#161 = LOCAL_TIME ( 11, 19, 9.000000000000000000, #211 ) ;
#162 = COORDINATED_UNIVERSAL_TIME_OFFSET ( 1, 0, .AHEAD. ) ;
#163 = ADVANCED_FACE ( 'NONE', ( #169 ), #50, .F. ) ;
#164 = EDGE_LOOP ( 'NONE', ( #219, #97, #113, #15 ) ) ;
#165 = EDGE_LOOP ( 'NONE', ( #39, #160 ) ) ;
#166 = VECTOR ( 'NONE', #214, 1000.000000000000000 ) ;
#167 = FACE_OUTER_BOUND ( 'NONE', #285, .T. ) ;
#168 = DIRECTION ( 'NONE',  ( -0.000000000000000000, -0.000000000000000000, -1.000000000000000000 ) ) ;
#169 = FACE_OUTER_BOUND ( 'NONE', #93, .T. ) ;
#170 = AXIS2_PLACEMENT_3D ( 'NONE', #264, #265, #149 ) ;
#171 = PRODUCT_DEFINITION_FORMATION_WITH_SPECIFIED_SOURCE ( 'LIBOVOLNÝ', '', #293, .NOT_KNOWN. ) ;
#172 = CARTESIAN_POINT ( 'NONE',  ( 0.000000000000000000, 0.000000000000000000, 10.00000000000000000 ) ) ;
#173 = AXIS2_PLACEMENT_3D ( 'NONE', #6, #122, #271 ) ;
#174 = ORIENTED_EDGE ( 'NONE', *, *, #289, .T. ) ;
#175 = CARTESIAN_POINT ( 'NONE',  ( 16.00000000000000000, 1.959434878635765131E-15, 0.000000000000000000 ) ) ;
#176 = DIRECTION ( 'NONE',  ( 1.000000000000000000, 0.000000000000000000, 0.000000000000000000 ) ) ;
#177 = CARTESIAN_POINT ( 'NONE',  ( 16.00000000000000000, 1.959434878635765131E-15, 10.00000000000000000 ) ) ;
#178 = DIRECTION ( 'NONE',  ( 1.000000000000000000, 0.000000000000000000, 0.000000000000000000 ) ) ;
#179 = AXIS2_PLACEMENT_3D ( 'NONE', #276, #79, #176 ) ;
#180 = EDGE_CURVE ( 'NONE', #66, #255, #11, .T. ) ;
#181 = ORIENTED_EDGE ( 'NONE', *, *, #134, .T. ) ;
#182 = ORIENTED_EDGE ( 'NONE', *, *, #289, .F. ) ;
#183 = ADVANCED_FACE ( 'NONE', ( #299, #9 ), #203, .T. ) ;
#184 = APPROVAL_ROLE ( '' ) ;
#185 = ORIENTED_EDGE ( 'NONE', *, *, #275, .F. ) ;
#186 = AXIS2_PLACEMENT_3D ( 'NONE', #7, #298, #245 ) ;
#187 = VERTEX_POINT ( 'NONE', #177 ) ;
#188 = COORDINATED_UNIVERSAL_TIME_OFFSET ( 1, 0, .AHEAD. ) ;
#189 = VERTEX_POINT ( 'NONE', #224 ) ;
#190 = APPLICATION_CONTEXT ( 'configuration controlled 3d designs of mechanical parts and assemblies' ) ;
#191 = CARTESIAN_POINT ( 'NONE',  ( -16.00000000000000000, 0.000000000000000000, 10.00000000000000000 ) ) ;
#192 = DIRECTION ( 'NONE',  ( 0.000000000000000000, 0.000000000000000000, 1.000000000000000000 ) ) ;
#193 = EDGE_CURVE ( 'NONE', #66, #89, #283, .T. ) ;
#194 = CARTESIAN_POINT ( 'NONE',  ( -16.00000000000000000, 0.000000000000000000, 0.000000000000000000 ) ) ;
#195 = APPROVAL_PERSON_ORGANIZATION ( #208, #260, #133 ) ;
#196 = DIRECTION ( 'NONE',  ( -1.000000000000000000, 0.000000000000000000, 0.000000000000000000 ) ) ;
#197 = DESIGN_CONTEXT ( 'detailed design', #205, 'design' ) ;
#198 = DIRECTION ( 'NONE',  ( -0.000000000000000000, -0.000000000000000000, -1.000000000000000000 ) ) ;
#199 = DIRECTION ( 'NONE',  ( 1.000000000000000000, 0.000000000000000000, 0.000000000000000000 ) ) ;
#200 = PERSON ( 'NEURÈENÝ', 'NEURÈENÝ', 'NEURÈENÝ', ('NEURÈENÝ'), ('NEURÈENÝ'), ('NEURÈENÝ') ) ;
#201 =( NAMED_UNIT ( * ) PLANE_ANGLE_UNIT ( ) SI_UNIT ( $, .RADIAN. ) );
#202 = LOCAL_TIME ( 11, 19, 9.000000000000000000, #254 ) ;
#203 = PLANE ( 'NONE',  #267 ) ;
#204 = PERSON_AND_ORGANIZATION ( #200, #136 ) ;
#205 = APPLICATION_CONTEXT ( 'configuration controlled 3d designs of mechanical parts and assemblies' ) ;
#206 = DATE_AND_TIME ( #252, #202 ) ;
#207 = PERSON_AND_ORGANIZATION ( #200, #136 ) ;
#208 = PERSON_AND_ORGANIZATION ( #200, #136 ) ;
#209 = AXIS2_PLACEMENT_3D ( 'NONE', #104, #27, #58 ) ;
#210 = TOROIDAL_SURFACE ( 'NONE', #170, 12.70000000000000107, 0.2000000000000000111 ) ;
#211 = COORDINATED_UNIVERSAL_TIME_OFFSET ( 1, 0, .AHEAD. ) ;
#212 = EDGE_CURVE ( 'NONE', #65, #307, #76, .T. ) ;
#213 = CC_DESIGN_DATE_AND_TIME_ASSIGNMENT ( #206, #135, ( #5 ) ) ;
#214 = DIRECTION ( 'NONE',  ( -0.000000000000000000, -0.000000000000000000, -1.000000000000000000 ) ) ;
#215 = DIRECTION ( 'NONE',  ( -0.000000000000000000, -0.000000000000000000, -1.000000000000000000 ) ) ;
#216 = CC_DESIGN_APPROVAL ( #107, ( #171 ) ) ;
#217 = DIRECTION ( 'NONE',  ( 1.000000000000000000, 0.000000000000000000, -0.000000000000000000 ) ) ;
#218 = EDGE_CURVE ( 'NONE', #255, #66, #51, .T. ) ;
#219 = ORIENTED_EDGE ( 'NONE', *, *, #270, .F. ) ;
#220 = DIRECTION ( 'NONE',  ( 1.000000000000000000, 0.000000000000000000, 0.000000000000000000 ) ) ;
#221 = CIRCLE ( 'NONE', #130, 0.2000000000000005107 ) ;
#222 = CYLINDRICAL_SURFACE ( 'NONE', #235, 12.50000000000000000 ) ;
#223 = DIRECTION ( 'NONE',  ( 0.000000000000000000, 0.000000000000000000, 1.000000000000000000 ) ) ;
#224 = CARTESIAN_POINT ( 'NONE',  ( -12.50000000000000000, 0.000000000000000000, 110.0000000000000000 ) ) ;
#225 = CIRCLE ( 'NONE', #263, 12.70000000000000107 ) ;
#226 = DIRECTION ( 'NONE',  ( 1.000000000000000000, 0.000000000000000000, -0.000000000000000000 ) ) ;
#227 = DIRECTION ( 'NONE',  ( 0.000000000000000000, 0.000000000000000000, -1.000000000000000000 ) ) ;
#228 = DATE_AND_TIME ( #258, #80 ) ;
#229 = PERSON_AND_ORGANIZATION_ROLE ( 'design_supplier' ) ;
#230 = CIRCLE ( 'NONE', #111, 16.00000000000000000 ) ;
#231 = EDGE_CURVE ( 'NONE', #96, #187, #32, .T. ) ;
#232 = SECURITY_CLASSIFICATION_LEVEL ( 'unclassified' ) ;
#233 = ORIENTED_EDGE ( 'NONE', *, *, #218, .F. ) ;
#234 = ORIENTED_EDGE ( 'NONE', *, *, #247, .F. ) ;
#235 = AXIS2_PLACEMENT_3D ( 'NONE', #8, #198, #295 ) ;
#236 = ORIENTED_EDGE ( 'NONE', *, *, #212, .F. ) ;
#237 = DIRECTION ( 'NONE',  ( 0.000000000000000000, 0.000000000000000000, 1.000000000000000000 ) ) ;
#238 = CARTESIAN_POINT ( 'NONE',  ( 0.000000000000000000, 0.000000000000000000, 10.00000000000000000 ) ) ;
#239 = LOCAL_TIME ( 11, 19, 9.000000000000000000, #94 ) ;
#240 = CYLINDRICAL_SURFACE ( 'NONE', #85, 16.00000000000000000 ) ;
#241 = CYLINDRICAL_SURFACE ( 'NONE', #173, 12.50000000000000000 ) ;
#242 = PRODUCT_DEFINITION_SHAPE ( 'NONE', 'NONE',  #5 ) ;
#243 = CARTESIAN_POINT ( 'NONE',  ( 0.000000000000000000, 0.000000000000000000, 10.20000000000000107 ) ) ;
#244 = CC_DESIGN_PERSON_AND_ORGANIZATION_ASSIGNMENT ( #119, #159, ( #5 ) ) ;
#245 = DIRECTION ( 'NONE',  ( 1.000000000000000000, 0.000000000000000000, 0.000000000000000000 ) ) ;
#246 = DIRECTION ( 'NONE',  ( 1.000000000000000000, 0.000000000000000000, 0.000000000000000000 ) ) ;
#247 = EDGE_CURVE ( 'NONE', #255, #140, #221, .T. ) ;
#248 = AXIS2_PLACEMENT_3D ( 'NONE', #151, #154, #227 ) ;
#249 = CARTESIAN_POINT ( 'NONE',  ( 0.000000000000000000, 0.000000000000000000, 10.00000000000000000 ) ) ;
#250 = VECTOR ( 'NONE', #59, 1000.000000000000000 ) ;
#251 = CARTESIAN_POINT ( 'NONE',  ( 0.000000000000000000, 0.000000000000000000, 0.000000000000000000 ) ) ;
#252 = CALENDAR_DATE ( 2022, 20, 6 ) ;
#253 = ORIENTED_EDGE ( 'NONE', *, *, #218, .T. ) ;
#254 = COORDINATED_UNIVERSAL_TIME_OFFSET ( 1, 0, .AHEAD. ) ;
#255 = VERTEX_POINT ( 'NONE', #132 ) ;
#256 = PERSON_AND_ORGANIZATION_ROLE ( 'design_owner' ) ;
#257 = ORIENTED_EDGE ( 'NONE', *, *, #193, .F. ) ;
#258 = CALENDAR_DATE ( 2022, 20, 6 ) ;
#259 = ORIENTED_EDGE ( 'NONE', *, *, #247, .T. ) ;
#260 = APPROVAL ( #40, 'NEURÈENÝ' ) ;
#261 = CC_DESIGN_DATE_AND_TIME_ASSIGNMENT ( #303, #305, ( #33 ) ) ;
#262 = EDGE_LOOP ( 'NONE', ( #181, #174 ) ) ;
#263 = AXIS2_PLACEMENT_3D ( 'NONE', #125, #215, #220 ) ;
#264 = CARTESIAN_POINT ( 'NONE',  ( 0.000000000000000000, 0.000000000000000000, 10.20000000000000107 ) ) ;
#265 = DIRECTION ( 'NONE',  ( 0.000000000000000000, 0.000000000000000000, 1.000000000000000000 ) ) ;
#266 = FACE_OUTER_BOUND ( 'NONE', #286, .T. ) ;
#267 = AXIS2_PLACEMENT_3D ( 'NONE', #78, #109, #226 ) ;
#268 = APPROVAL_PERSON_ORGANIZATION ( #156, #107, #110 ) ;
#269 = CARTESIAN_POINT ( 'NONE',  ( 0.000000000000000000, 0.000000000000000000, 0.000000000000000000 ) ) ;
#270 = EDGE_CURVE ( 'NONE', #187, #307, #84, .T. ) ;
#271 = DIRECTION ( 'NONE',  ( -1.000000000000000000, 0.000000000000000000, 0.000000000000000000 ) ) ;
#272 = CC_DESIGN_PERSON_AND_ORGANIZATION_ASSIGNMENT ( #114, #92, ( #33 ) ) ;
#273 =( GEOMETRIC_REPRESENTATION_CONTEXT ( 3 ) GLOBAL_UNCERTAINTY_ASSIGNED_CONTEXT ( ( #81 ) ) GLOBAL_UNIT_ASSIGNED_CONTEXT ( ( #29, #201, #274 ) ) REPRESENTATION_CONTEXT ( 'NONE', 'WORKASPACE' ) );
#274 =( NAMED_UNIT ( * ) SI_UNIT ( $, .STERADIAN. ) SOLID_ANGLE_UNIT ( ) );
#275 = EDGE_CURVE ( 'NONE', #189, #255, #278, .T. ) ;
#276 = CARTESIAN_POINT ( 'NONE',  ( 0.000000000000000000, 0.000000000000000000, 0.000000000000000000 ) ) ;
#277 = TOROIDAL_SURFACE ( 'NONE', #57, 12.70000000000000107, 0.2000000000000000111 ) ;
#278 = LINE ( 'NONE', #129, #155 ) ;
#279 = PERSON_AND_ORGANIZATION ( #200, #136 ) ;
#280 = DATE_AND_TIME ( #137, #239 ) ;
#281 = ORIENTED_EDGE ( 'NONE', *, *, #103, .F. ) ;
#282 = APPROVAL_DATE_TIME ( #228, #83 ) ;
#283 = CIRCLE ( 'NONE', #248, 0.2000000000000005107 ) ;
#284 = PERSON_AND_ORGANIZATION ( #200, #136 ) ;
#285 = EDGE_LOOP ( 'NONE', ( #233, #259, #41, #257 ) ) ;
#286 = EDGE_LOOP ( 'NONE', ( #234, #121, #46, #302 ) ) ;
#287 = DIRECTION ( 'NONE',  ( -0.000000000000000000, -0.000000000000000000, -1.000000000000000000 ) ) ;
#288 = CIRCLE ( 'NONE', #35, 12.70000000000000107 ) ;
#289 = EDGE_CURVE ( 'NONE', #19, #189, #20, .T. ) ;
#290 = DIRECTION ( 'NONE',  ( 1.000000000000000000, 0.000000000000000000, 0.000000000000000000 ) ) ;
#291 = CARTESIAN_POINT ( 'NONE',  ( -12.70000000000000107, 1.555301434917138630E-15, 10.00000000000000000 ) ) ;
#292 = CIRCLE ( 'NONE', #63, 16.00000000000000000 ) ;
#293 = PRODUCT ( 'f2a8', 'f2a8', '', ( #306 ) ) ;
#294 = CARTESIAN_POINT ( 'NONE',  ( 0.000000000000000000, 0.000000000000000000, 10.20000000000000107 ) ) ;
#295 = DIRECTION ( 'NONE',  ( -1.000000000000000000, 0.000000000000000000, 0.000000000000000000 ) ) ;
#296 = EDGE_CURVE ( 'NONE', #307, #65, #292, .T. ) ;
#297 = FACE_OUTER_BOUND ( 'NONE', #43, .T. ) ;
#298 = DIRECTION ( 'NONE',  ( 0.000000000000000000, 0.000000000000000000, 1.000000000000000000 ) ) ;
#299 = FACE_BOUND ( 'NONE', #17, .T. ) ;
#300 = ADVANCED_FACE ( 'NONE', ( #297 ), #222, .T. ) ;
#301 = AXIS2_PLACEMENT_3D ( 'NONE', #172, #53, #196 ) ;
#302 = ORIENTED_EDGE ( 'NONE', *, *, #72, .F. ) ;
#303 = DATE_AND_TIME ( #42, #161 ) ;
#304 = EDGE_LOOP ( 'NONE', ( #182, #158, #116, #185 ) ) ;
#305 = DATE_TIME_ROLE ( 'classification_date' ) ;
#306 = MECHANICAL_CONTEXT ( 'NONE', #190, 'mechanical' ) ;
#307 = VERTEX_POINT ( 'NONE', #175 ) ;
ENDSEC;
END-ISO-10303-21;
