ISO-10303-21;
HEADER;
FILE_DESCRIPTION (( 'STEP AP203' ),
    '1' );
FILE_NAME ('1709.STEP',
    '2022-06-20T09:58:48',
    ( '' ),
    ( '' ),
    'SwSTEP 2.0',
    'SolidWorks 2019',
    '' );
FILE_SCHEMA (( 'CONFIG_CONTROL_DESIGN' ));
ENDSEC;

DATA;
#1 = CARTESIAN_POINT ( 'NONE',  ( 5.000000000000000000, 6.123233995736766282E-16, 3.000000000000000000 ) ) ;
#2 = CARTESIAN_POINT ( 'NONE',  ( -2.750000000000000000, 0.000000000000000000, 803.0000000000000000 ) ) ;
#3 = FACE_OUTER_BOUND ( 'NONE', #284, .T. ) ;
#4 = AXIS2_PLACEMENT_3D ( 'NONE', #174, #63, #14 ) ;
#5 = DIRECTION ( 'NONE',  ( 1.000000000000000000, 0.000000000000000000, 0.000000000000000000 ) ) ;
#6 = ADVANCED_FACE ( 'NONE', ( #99 ), #190, .F. ) ;
#7 = LINE ( 'NONE', #112, #179 ) ;
#8 = APPROVAL ( #48, 'NEURÈENÝ' ) ;
#9 = ORIENTED_EDGE ( 'NONE', *, *, #294, .T. ) ;
#10 = ORIENTED_EDGE ( 'NONE', *, *, #107, .F. ) ;
#11 = SECURITY_CLASSIFICATION ( '', '', #279 ) ;
#12 = FACE_BOUND ( 'NONE', #222, .T. ) ;
#13 = EDGE_LOOP ( 'NONE', ( #165, #252 ) ) ;
#14 = DIRECTION ( 'NONE',  ( -1.000000000000000000, 0.000000000000000000, 0.000000000000000000 ) ) ;
#15 = VERTEX_POINT ( 'NONE', #100 ) ;
#16 = DIRECTION ( 'NONE',  ( 0.000000000000000000, 0.000000000000000000, 1.000000000000000000 ) ) ;
#17 = ADVANCED_FACE ( 'NONE', ( #142 ), #285, .T. ) ;
#18 =( GEOMETRIC_REPRESENTATION_CONTEXT ( 3 ) GLOBAL_UNCERTAINTY_ASSIGNED_CONTEXT ( ( #59 ) ) GLOBAL_UNIT_ASSIGNED_CONTEXT ( ( #36, #269, #297 ) ) REPRESENTATION_CONTEXT ( 'NONE', 'WORKASPACE' ) );
#19 = PERSON_AND_ORGANIZATION_ROLE ( 'design_supplier' ) ;
#20 = CC_DESIGN_PERSON_AND_ORGANIZATION_ASSIGNMENT ( #72, #19, ( #249 ) ) ;
#21 = APPROVAL_ROLE ( '' ) ;
#22 = CARTESIAN_POINT ( 'NONE',  ( 5.000000000000000000, 6.123233995736766282E-16, 3.000000000000000000 ) ) ;
#23 = DIRECTION ( 'NONE',  ( 1.000000000000000000, 0.000000000000000000, 0.000000000000000000 ) ) ;
#24 = CIRCLE ( 'NONE', #139, 5.000000000000000000 ) ;
#25 = DIRECTION ( 'NONE',  ( 1.000000000000000000, 0.000000000000000000, 0.000000000000000000 ) ) ;
#26 = PERSON_AND_ORGANIZATION ( #133, #191 ) ;
#27 = DIRECTION ( 'NONE',  ( -0.000000000000000000, -0.000000000000000000, -1.000000000000000000 ) ) ;
#28 = TOROIDAL_SURFACE ( 'NONE', #221, 2.949999999999999734, 0.2000000000000000111 ) ;
#29 = DIRECTION ( 'NONE',  ( 0.000000000000000000, 0.000000000000000000, 1.000000000000000000 ) ) ;
#30 = EDGE_CURVE ( 'NONE', #270, #15, #120, .T. ) ;
#31 = CYLINDRICAL_SURFACE ( 'NONE', #261, 2.750000000000000000 ) ;
#32 = AXIS2_PLACEMENT_3D ( 'NONE', #227, #199, #268 ) ;
#33 = FACE_OUTER_BOUND ( 'NONE', #13, .T. ) ;
#34 = CIRCLE ( 'NONE', #201, 0.2000000000000000944 ) ;
#35 = DESIGN_CONTEXT ( 'detailed design', #117, 'design' ) ;
#36 =( LENGTH_UNIT ( ) NAMED_UNIT ( * ) SI_UNIT ( .MILLI., .METRE. ) );
#37 = EDGE_CURVE ( 'NONE', #109, #15, #189, .T. ) ;
#38 = LOCAL_TIME ( 11, 58, 48.00000000000000000, #253 ) ;
#39 = AXIS2_PLACEMENT_3D ( 'NONE', #166, #257, #47 ) ;
#40 = ORIENTED_EDGE ( 'NONE', *, *, #162, .F. ) ;
#41 = DIRECTION ( 'NONE',  ( 0.000000000000000000, 0.000000000000000000, 1.000000000000000000 ) ) ;
#42 = ORIENTED_EDGE ( 'NONE', *, *, #162, .T. ) ;
#43 = DIRECTION ( 'NONE',  ( 0.000000000000000000, 0.000000000000000000, 1.000000000000000000 ) ) ;
#44 = ORIENTED_EDGE ( 'NONE', *, *, #207, .F. ) ;
#45 = EDGE_LOOP ( 'NONE', ( #298, #40, #178, #205 ) ) ;
#46 = VECTOR ( 'NONE', #127, 1000.000000000000000 ) ;
#47 = DIRECTION ( 'NONE',  ( 1.000000000000000000, 0.000000000000000000, 0.000000000000000000 ) ) ;
#48 = APPROVAL_STATUS ( 'not_yet_approved' ) ;
#49 = DIRECTION ( 'NONE',  ( -1.000000000000000000, 1.224646799147353207E-16, 0.000000000000000000 ) ) ;
#50 = AXIS2_PLACEMENT_3D ( 'NONE', #218, #78, #273 ) ;
#51 = DIRECTION ( 'NONE',  ( -1.000000000000000000, 0.000000000000000000, 0.000000000000000000 ) ) ;
#52 = CARTESIAN_POINT ( 'NONE',  ( -2.750000000000000000, 0.000000000000000000, 803.0000000000000000 ) ) ;
#53 = EDGE_CURVE ( 'NONE', #119, #228, #146, .T. ) ;
#54 = FACE_OUTER_BOUND ( 'NONE', #130, .T. ) ;
#55 = CARTESIAN_POINT ( 'NONE',  ( 0.000000000000000000, 0.000000000000000000, 803.0000000000000000 ) ) ;
#56 = DIRECTION ( 'NONE',  ( 0.000000000000000000, -1.000000000000000000, 0.000000000000000000 ) ) ;
#57 = CIRCLE ( 'NONE', #39, 2.750000000000000000 ) ;
#58 = CC_DESIGN_APPROVAL ( #8, ( #249 ) ) ;
#59 = UNCERTAINTY_MEASURE_WITH_UNIT (LENGTH_MEASURE( 1.000000000000000082E-05 ), #36, 'distance_accuracy_value', 'NONE');
#60 = ORIENTED_EDGE ( 'NONE', *, *, #89, .F. ) ;
#61 = EDGE_LOOP ( 'NONE', ( #10, #132, #64, #156 ) ) ;
#62 = LOCAL_TIME ( 11, 58, 48.00000000000000000, #67 ) ;
#63 = DIRECTION ( 'NONE',  ( -0.000000000000000000, -0.000000000000000000, -1.000000000000000000 ) ) ;
#64 = ORIENTED_EDGE ( 'NONE', *, *, #76, .F. ) ;
#65 = ADVANCED_FACE ( 'NONE', ( #101 ), #96, .T. ) ;
#66 = APPROVAL_DATE_TIME ( #277, #170 ) ;
#67 = COORDINATED_UNIVERSAL_TIME_OFFSET ( 1, 0, .AHEAD. ) ;
#68 = CARTESIAN_POINT ( 'NONE',  ( 0.000000000000000000, 0.000000000000000000, 0.000000000000000000 ) ) ;
#69 = CALENDAR_DATE ( 2022, 20, 6 ) ;
#70 = PRODUCT_RELATED_PRODUCT_CATEGORY ( 'detail', '', ( #264 ) ) ;
#71 = DIRECTION ( 'NONE',  ( -0.000000000000000000, -0.000000000000000000, -1.000000000000000000 ) ) ;
#72 = PERSON_AND_ORGANIZATION ( #133, #191 ) ;
#73 = CARTESIAN_POINT ( 'NONE',  ( 0.000000000000000000, 0.000000000000000000, 803.0000000000000000 ) ) ;
#74 = LOCAL_TIME ( 11, 58, 48.00000000000000000, #160 ) ;
#75 = DIRECTION ( 'NONE',  ( 0.000000000000000000, 0.000000000000000000, 1.000000000000000000 ) ) ;
#76 = EDGE_CURVE ( 'NONE', #248, #296, #85, .T. ) ;
#77 = DIRECTION ( 'NONE',  ( 1.000000000000000000, 0.000000000000000000, 0.000000000000000000 ) ) ;
#78 = DIRECTION ( 'NONE',  ( 0.000000000000000000, 0.000000000000000000, 1.000000000000000000 ) ) ;
#79 = EDGE_CURVE ( 'NONE', #228, #151, #168, .T. ) ;
#80 = CARTESIAN_POINT ( 'NONE',  ( 0.000000000000000000, 0.000000000000000000, 3.000000000000000000 ) ) ;
#81 = PRODUCT_DEFINITION_SHAPE ( 'NONE', 'NONE',  #283 ) ;
#82 = AXIS2_PLACEMENT_3D ( 'NONE', #224, #56, #148 ) ;
#83 = DIRECTION ( 'NONE',  ( 0.000000000000000000, 0.000000000000000000, 1.000000000000000000 ) ) ;
#84 = ORIENTED_EDGE ( 'NONE', *, *, #236, .F. ) ;
#85 = CIRCLE ( 'NONE', #281, 2.949999999999999734 ) ;
#86 = VERTEX_POINT ( 'NONE', #192 ) ;
#87 = FACE_OUTER_BOUND ( 'NONE', #45, .T. ) ;
#88 = ORIENTED_EDGE ( 'NONE', *, *, #53, .T. ) ;
#89 = EDGE_CURVE ( 'NONE', #15, #296, #34, .T. ) ;
#90 = AXIS2_PLACEMENT_3D ( 'NONE', #126, #41, #202 ) ;
#91 = PERSON_AND_ORGANIZATION ( #133, #191 ) ;
#92 = ORIENTED_EDGE ( 'NONE', *, *, #30, .T. ) ;
#93 = CALENDAR_DATE ( 2022, 20, 6 ) ;
#94 = ADVANCED_FACE ( 'NONE', ( #54 ), #28, .F. ) ;
#95 = CALENDAR_DATE ( 2022, 20, 6 ) ;
#96 = CYLINDRICAL_SURFACE ( 'NONE', #217, 2.750000000000000000 ) ;
#97 = PERSON_AND_ORGANIZATION_ROLE ( 'classification_officer' ) ;
#98 = AXIS2_PLACEMENT_3D ( 'NONE', #68, #75, #77 ) ;
#99 = FACE_OUTER_BOUND ( 'NONE', #111, .T. ) ;
#100 = CARTESIAN_POINT ( 'NONE',  ( -2.750000000000000000, 0.000000000000000000, 3.199999999999980638 ) ) ;
#101 = FACE_OUTER_BOUND ( 'NONE', #136, .T. ) ;
#102 = DIRECTION ( 'NONE',  ( 1.000000000000000000, 0.000000000000000000, 0.000000000000000000 ) ) ;
#103 = CC_DESIGN_PERSON_AND_ORGANIZATION_ASSIGNMENT ( #91, #208, ( #249 ) ) ;
#104 = CYLINDRICAL_SURFACE ( 'NONE', #4, 5.000000000000000000 ) ;
#105 = APPLICATION_CONTEXT ( 'configuration controlled 3d designs of mechanical parts and assemblies' ) ;
#106 = DIRECTION ( 'NONE',  ( 1.000000000000000000, 0.000000000000000000, 0.000000000000000000 ) ) ;
#107 = EDGE_CURVE ( 'NONE', #15, #270, #57, .T. ) ;
#108 = DIRECTION ( 'NONE',  ( 1.000000000000000000, 0.000000000000000000, 0.000000000000000000 ) ) ;
#109 = VERTEX_POINT ( 'NONE', #2 ) ;
#110 = CARTESIAN_POINT ( 'NONE',  ( 0.000000000000000000, 0.000000000000000000, 3.000000000000000000 ) ) ;
#111 = EDGE_LOOP ( 'NONE', ( #113, #187 ) ) ;
#112 = CARTESIAN_POINT ( 'NONE',  ( -5.000000000000000000, 0.000000000000000000, 3.000000000000000000 ) ) ;
#113 = ORIENTED_EDGE ( 'NONE', *, *, #195, .F. ) ;
#114 = EDGE_CURVE ( 'NONE', #280, #109, #291, .T. ) ;
#115 = DATE_AND_TIME ( #143, #38 ) ;
#116 = CARTESIAN_POINT ( 'NONE',  ( 0.000000000000000000, 0.000000000000000000, 0.000000000000000000 ) ) ;
#117 = APPLICATION_CONTEXT ( 'configuration controlled 3d designs of mechanical parts and assemblies' ) ;
#118 = AXIS2_PLACEMENT_3D ( 'NONE', #110, #83, #131 ) ;
#119 = VERTEX_POINT ( 'NONE', #1 ) ;
#120 = CIRCLE ( 'NONE', #129, 2.750000000000000000 ) ;
#121 = DIRECTION ( 'NONE',  ( 0.000000000000000000, 0.000000000000000000, 1.000000000000000000 ) ) ;
#122 = MANIFOLD_SOLID_BREP ( 'Zaoblit1', #288 ) ;
#123 = CC_DESIGN_PERSON_AND_ORGANIZATION_ASSIGNMENT ( #307, #97, ( #11 ) ) ;
#124 = CARTESIAN_POINT ( 'NONE',  ( 0.000000000000000000, 0.000000000000000000, 3.199999999999980638 ) ) ;
#125 = CARTESIAN_POINT ( 'NONE',  ( 0.000000000000000000, 0.000000000000000000, 3.000000000000000000 ) ) ;
#126 = CARTESIAN_POINT ( 'NONE',  ( 0.000000000000000000, 0.000000000000000000, 3.000000000000000000 ) ) ;
#127 = DIRECTION ( 'NONE',  ( -0.000000000000000000, -0.000000000000000000, -1.000000000000000000 ) ) ;
#128 = CIRCLE ( 'NONE', #50, 5.000000000000000000 ) ;
#129 = AXIS2_PLACEMENT_3D ( 'NONE', #235, #287, #102 ) ;
#130 = EDGE_LOOP ( 'NONE', ( #60, #153, #300, #141 ) ) ;
#131 = DIRECTION ( 'NONE',  ( 1.000000000000000000, 0.000000000000000000, -0.000000000000000000 ) ) ;
#132 = ORIENTED_EDGE ( 'NONE', *, *, #89, .T. ) ;
#133 = PERSON ( 'NEURÈENÝ', 'NEURÈENÝ', 'NEURÈENÝ', ('NEURÈENÝ'), ('NEURÈENÝ'), ('NEURÈENÝ') ) ;
#134 = CC_DESIGN_DATE_AND_TIME_ASSIGNMENT ( #115, #258, ( #283 ) ) ;
#135 = PLANE ( 'NONE',  #32 ) ;
#136 = EDGE_LOOP ( 'NONE', ( #231, #84, #274, #193 ) ) ;
#137 = ORIENTED_EDGE ( 'NONE', *, *, #186, .T. ) ;
#138 = APPROVAL_DATE_TIME ( #158, #8 ) ;
#139 = AXIS2_PLACEMENT_3D ( 'NONE', #125, #145, #5 ) ;
#140 = DATE_AND_TIME ( #95, #226 ) ;
#141 = ORIENTED_EDGE ( 'NONE', *, *, #223, .F. ) ;
#142 = FACE_OUTER_BOUND ( 'NONE', #271, .T. ) ;
#143 = CALENDAR_DATE ( 2022, 20, 6 ) ;
#144 = CC_DESIGN_APPROVAL ( #170, ( #283 ) ) ;
#145 = DIRECTION ( 'NONE',  ( 0.000000000000000000, 0.000000000000000000, 1.000000000000000000 ) ) ;
#146 = LINE ( 'NONE', #22, #293 ) ;
#147 = DIRECTION ( 'NONE',  ( -0.000000000000000000, -0.000000000000000000, -1.000000000000000000 ) ) ;
#148 = DIRECTION ( 'NONE',  ( 0.000000000000000000, 0.000000000000000000, -1.000000000000000000 ) ) ;
#149 = CC_DESIGN_APPROVAL ( #216, ( #11 ) ) ;
#150 = CARTESIAN_POINT ( 'NONE',  ( 2.949999999999999734, 0.000000000000000000, 2.999999999999990674 ) ) ;
#151 = VERTEX_POINT ( 'NONE', #214 ) ;
#152 = ADVANCED_FACE ( 'NONE', ( #3 ), #31, .T. ) ;
#153 = ORIENTED_EDGE ( 'NONE', *, *, #30, .F. ) ;
#154 = CIRCLE ( 'NONE', #90, 5.000000000000000000 ) ;
#155 = CARTESIAN_POINT ( 'NONE',  ( -2.949999999999999734, 3.612708057484692097E-16, 2.999999999999990674 ) ) ;
#156 = ORIENTED_EDGE ( 'NONE', *, *, #272, .F. ) ;
#157 = APPROVAL_ROLE ( '' ) ;
#158 = DATE_AND_TIME ( #210, #206 ) ;
#159 = AXIS2_PLACEMENT_3D ( 'NONE', #55, #43, #194 ) ;
#160 = COORDINATED_UNIVERSAL_TIME_OFFSET ( 1, 0, .AHEAD. ) ;
#161 = DIRECTION ( 'NONE',  ( 1.224646799147353207E-16, 1.000000000000000000, -0.000000000000000000 ) ) ;
#162 = EDGE_CURVE ( 'NONE', #86, #119, #24, .T. ) ;
#163 = CARTESIAN_POINT ( 'NONE',  ( 0.000000000000000000, 0.000000000000000000, 803.0000000000000000 ) ) ;
#164 = COORDINATED_UNIVERSAL_TIME_OFFSET ( 1, 0, .AHEAD. ) ;
#165 = ORIENTED_EDGE ( 'NONE', *, *, #236, .T. ) ;
#166 = CARTESIAN_POINT ( 'NONE',  ( 0.000000000000000000, 0.000000000000000000, 3.199999999999980638 ) ) ;
#167 = ADVANCED_BREP_SHAPE_REPRESENTATION ( '1709', ( #122, #286 ), #18 ) ;
#168 = CIRCLE ( 'NONE', #98, 5.000000000000000000 ) ;
#169 = DIRECTION ( 'NONE',  ( -0.000000000000000000, -0.000000000000000000, -1.000000000000000000 ) ) ;
#170 = APPROVAL ( #303, 'NEURÈENÝ' ) ;
#171 = CARTESIAN_POINT ( 'NONE',  ( 5.000000000000000000, 6.123233995736766282E-16, 0.000000000000000000 ) ) ;
#172 = CARTESIAN_POINT ( 'NONE',  ( 2.750000000000000000, 3.367778697655221012E-16, 803.0000000000000000 ) ) ;
#173 = CIRCLE ( 'NONE', #215, 2.949999999999999734 ) ;
#174 = CARTESIAN_POINT ( 'NONE',  ( 0.000000000000000000, 0.000000000000000000, 3.000000000000000000 ) ) ;
#175 = ORIENTED_EDGE ( 'NONE', *, *, #114, .F. ) ;
#176 = ORIENTED_EDGE ( 'NONE', *, *, #223, .T. ) ;
#177 = FACE_OUTER_BOUND ( 'NONE', #61, .T. ) ;
#178 = ORIENTED_EDGE ( 'NONE', *, *, #207, .T. ) ;
#179 = VECTOR ( 'NONE', #292, 1000.000000000000000 ) ;
#180 = APPROVAL_STATUS ( 'not_yet_approved' ) ;
#181 = ORIENTED_EDGE ( 'NONE', *, *, #79, .T. ) ;
#182 = VECTOR ( 'NONE', #71, 1000.000000000000000 ) ;
#183 = MECHANICAL_CONTEXT ( 'NONE', #105, 'mechanical' ) ;
#184 = PERSON_AND_ORGANIZATION ( #133, #191 ) ;
#185 = APPROVAL_ROLE ( '' ) ;
#186 = EDGE_CURVE ( 'NONE', #280, #270, #247, .T. ) ;
#187 = ORIENTED_EDGE ( 'NONE', *, *, #79, .F. ) ;
#188 = COORDINATED_UNIVERSAL_TIME_OFFSET ( 1, 0, .AHEAD. ) ;
#189 = LINE ( 'NONE', #52, #182 ) ;
#190 = PLANE ( 'NONE',  #233 ) ;
#191 = ORGANIZATION ( 'NEURÈENÝ', 'NEURÈENÝ', '' ) ;
#192 = CARTESIAN_POINT ( 'NONE',  ( -5.000000000000000000, 0.000000000000000000, 3.000000000000000000 ) ) ;
#193 = ORIENTED_EDGE ( 'NONE', *, *, #107, .T. ) ;
#194 = DIRECTION ( 'NONE',  ( 1.000000000000000000, 0.000000000000000000, 0.000000000000000000 ) ) ;
#195 = EDGE_CURVE ( 'NONE', #151, #228, #128, .T. ) ;
#196 = APPROVAL_PERSON_ORGANIZATION ( #26, #170, #21 ) ;
#197 = CARTESIAN_POINT ( 'NONE',  ( 0.000000000000000000, 0.000000000000000000, 3.199999999999980638 ) ) ;
#198 = CIRCLE ( 'NONE', #82, 0.2000000000000000944 ) ;
#199 = DIRECTION ( 'NONE',  ( 0.000000000000000000, 0.000000000000000000, 1.000000000000000000 ) ) ;
#200 = ORIENTED_EDGE ( 'NONE', *, *, #294, .F. ) ;
#201 = AXIS2_PLACEMENT_3D ( 'NONE', #259, #161, #49 ) ;
#202 = DIRECTION ( 'NONE',  ( 1.000000000000000000, 0.000000000000000000, 0.000000000000000000 ) ) ;
#203 = EDGE_LOOP ( 'NONE', ( #42, #9 ) ) ;
#204 = PERSON_AND_ORGANIZATION_ROLE ( 'creator' ) ;
#205 = ORIENTED_EDGE ( 'NONE', *, *, #195, .T. ) ;
#206 = LOCAL_TIME ( 11, 58, 48.00000000000000000, #188 ) ;
#207 = EDGE_CURVE ( 'NONE', #86, #151, #7, .T. ) ;
#208 = PERSON_AND_ORGANIZATION_ROLE ( 'creator' ) ;
#209 = CARTESIAN_POINT ( 'NONE',  ( 0.000000000000000000, 0.000000000000000000, 3.000000000000000000 ) ) ;
#210 = CALENDAR_DATE ( 2022, 20, 6 ) ;
#211 = DIRECTION ( 'NONE',  ( 1.000000000000000000, 0.000000000000000000, -0.000000000000000000 ) ) ;
#212 = AXIS2_PLACEMENT_3D ( 'NONE', #209, #27, #213 ) ;
#213 = DIRECTION ( 'NONE',  ( -1.000000000000000000, 0.000000000000000000, 0.000000000000000000 ) ) ;
#214 = CARTESIAN_POINT ( 'NONE',  ( -5.000000000000000000, 0.000000000000000000, 0.000000000000000000 ) ) ;
#215 = AXIS2_PLACEMENT_3D ( 'NONE', #80, #289, #106 ) ;
#216 = APPROVAL ( #180, 'NEURÈENÝ' ) ;
#217 = AXIS2_PLACEMENT_3D ( 'NONE', #163, #147, #262 ) ;
#218 = CARTESIAN_POINT ( 'NONE',  ( 0.000000000000000000, 0.000000000000000000, 0.000000000000000000 ) ) ;
#219 = CARTESIAN_POINT ( 'NONE',  ( 2.750000000000000000, 3.367778697655221012E-16, 3.199999999999980638 ) ) ;
#220 = TOROIDAL_SURFACE ( 'NONE', #275, 2.949999999999999734, 0.2000000000000000111 ) ;
#221 = AXIS2_PLACEMENT_3D ( 'NONE', #124, #121, #242 ) ;
#222 = EDGE_LOOP ( 'NONE', ( #225, #176 ) ) ;
#223 = EDGE_CURVE ( 'NONE', #296, #248, #173, .T. ) ;
#224 = CARTESIAN_POINT ( 'NONE',  ( 2.949999999999999734, 0.000000000000000000, 3.199999999999980638 ) ) ;
#225 = ORIENTED_EDGE ( 'NONE', *, *, #76, .T. ) ;
#226 = LOCAL_TIME ( 11, 58, 48.00000000000000000, #164 ) ;
#227 = CARTESIAN_POINT ( 'NONE',  ( 0.000000000000000000, 0.000000000000000000, 803.0000000000000000 ) ) ;
#228 = VERTEX_POINT ( 'NONE', #171 ) ;
#229 = ADVANCED_FACE ( 'NONE', ( #87 ), #104, .T. ) ;
#230 = APPLICATION_PROTOCOL_DEFINITION ( 'international standard', 'config_control_design', 1994, #105 ) ;
#231 = ORIENTED_EDGE ( 'NONE', *, *, #186, .F. ) ;
#232 = CARTESIAN_POINT ( 'NONE',  ( 0.000000000000000000, 0.000000000000000000, 0.000000000000000000 ) ) ;
#233 = AXIS2_PLACEMENT_3D ( 'NONE', #116, #239, #211 ) ;
#234 = APPLICATION_PROTOCOL_DEFINITION ( 'international standard', 'config_control_design', 1994, #117 ) ;
#235 = CARTESIAN_POINT ( 'NONE',  ( 0.000000000000000000, 0.000000000000000000, 3.199999999999980638 ) ) ;
#236 = EDGE_CURVE ( 'NONE', #109, #280, #306, .T. ) ;
#237 = CARTESIAN_POINT ( 'NONE',  ( 0.000000000000000000, 0.000000000000000000, 803.0000000000000000 ) ) ;
#238 = APPROVAL_PERSON_ORGANIZATION ( #282, #216, #157 ) ;
#239 = DIRECTION ( 'NONE',  ( 0.000000000000000000, 0.000000000000000000, 1.000000000000000000 ) ) ;
#240 = ADVANCED_FACE ( 'NONE', ( #33 ), #135, .T. ) ;
#241 = CARTESIAN_POINT ( 'NONE',  ( 0.000000000000000000, 0.000000000000000000, 3.000000000000000000 ) ) ;
#242 = DIRECTION ( 'NONE',  ( 1.000000000000000000, 0.000000000000000000, 0.000000000000000000 ) ) ;
#243 = CARTESIAN_POINT ( 'NONE',  ( 2.750000000000000000, 3.367778697655221012E-16, 803.0000000000000000 ) ) ;
#244 = APPROVAL_PERSON_ORGANIZATION ( #299, #8, #185 ) ;
#245 = FACE_OUTER_BOUND ( 'NONE', #203, .T. ) ;
#246 = ORIENTED_EDGE ( 'NONE', *, *, #37, .F. ) ;
#247 = LINE ( 'NONE', #172, #46 ) ;
#248 = VERTEX_POINT ( 'NONE', #150 ) ;
#249 = PRODUCT_DEFINITION_FORMATION_WITH_SPECIFIED_SOURCE ( 'LIBOVOLNÝ', '', #264, .NOT_KNOWN. ) ;
#250 = CC_DESIGN_SECURITY_CLASSIFICATION ( #11, ( #249 ) ) ;
#251 = ADVANCED_FACE ( 'NONE', ( #177 ), #220, .F. ) ;
#252 = ORIENTED_EDGE ( 'NONE', *, *, #114, .T. ) ;
#253 = COORDINATED_UNIVERSAL_TIME_OFFSET ( 1, 0, .AHEAD. ) ;
#254 = DATE_AND_TIME ( #69, #74 ) ;
#255 = APPROVAL_DATE_TIME ( #140, #216 ) ;
#256 = CC_DESIGN_PERSON_AND_ORGANIZATION_ASSIGNMENT ( #184, #204, ( #283 ) ) ;
#257 = DIRECTION ( 'NONE',  ( 0.000000000000000000, 0.000000000000000000, 1.000000000000000000 ) ) ;
#258 = DATE_TIME_ROLE ( 'creation_date' ) ;
#259 = CARTESIAN_POINT ( 'NONE',  ( -2.949999999999999734, 3.612708057484692097E-16, 3.199999999999980638 ) ) ;
#260 = DIRECTION ( 'NONE',  ( -0.000000000000000000, -0.000000000000000000, -1.000000000000000000 ) ) ;
#261 = AXIS2_PLACEMENT_3D ( 'NONE', #73, #260, #51 ) ;
#262 = DIRECTION ( 'NONE',  ( -1.000000000000000000, 0.000000000000000000, 0.000000000000000000 ) ) ;
#263 = CC_DESIGN_DATE_AND_TIME_ASSIGNMENT ( #254, #304, ( #11 ) ) ;
#264 = PRODUCT ( '1709', '1709', '', ( #183 ) ) ;
#265 = DIRECTION ( 'NONE',  ( -0.000000000000000000, -0.000000000000000000, -1.000000000000000000 ) ) ;
#266 = ADVANCED_FACE ( 'NONE', ( #12, #245 ), #290, .T. ) ;
#267 = DIRECTION ( 'NONE',  ( 0.000000000000000000, 0.000000000000000000, 1.000000000000000000 ) ) ;
#268 = DIRECTION ( 'NONE',  ( 1.000000000000000000, 0.000000000000000000, -0.000000000000000000 ) ) ;
#269 =( NAMED_UNIT ( * ) PLANE_ANGLE_UNIT ( ) SI_UNIT ( $, .RADIAN. ) );
#270 = VERTEX_POINT ( 'NONE', #219 ) ;
#271 = EDGE_LOOP ( 'NONE', ( #200, #88, #181, #44 ) ) ;
#272 = EDGE_CURVE ( 'NONE', #270, #248, #198, .T. ) ;
#273 = DIRECTION ( 'NONE',  ( 1.000000000000000000, 0.000000000000000000, 0.000000000000000000 ) ) ;
#274 = ORIENTED_EDGE ( 'NONE', *, *, #37, .T. ) ;
#275 = AXIS2_PLACEMENT_3D ( 'NONE', #197, #267, #108 ) ;
#276 = SHAPE_DEFINITION_REPRESENTATION ( #81, #167 ) ;
#277 = DATE_AND_TIME ( #93, #62 ) ;
#278 = PERSON_AND_ORGANIZATION_ROLE ( 'design_owner' ) ;
#279 = SECURITY_CLASSIFICATION_LEVEL ( 'unclassified' ) ;
#280 = VERTEX_POINT ( 'NONE', #243 ) ;
#281 = AXIS2_PLACEMENT_3D ( 'NONE', #241, #265, #305 ) ;
#282 = PERSON_AND_ORGANIZATION ( #133, #191 ) ;
#283 = PRODUCT_DEFINITION ( 'NEZNÁMÝ', '', #249, #35 ) ;
#284 = EDGE_LOOP ( 'NONE', ( #175, #137, #92, #246 ) ) ;
#285 = CYLINDRICAL_SURFACE ( 'NONE', #212, 5.000000000000000000 ) ;
#286 = AXIS2_PLACEMENT_3D ( 'NONE', #232, #16, #23 ) ;
#287 = DIRECTION ( 'NONE',  ( 0.000000000000000000, 0.000000000000000000, 1.000000000000000000 ) ) ;
#288 = CLOSED_SHELL ( 'NONE', ( #251, #152, #17, #229, #266, #6, #65, #240, #94 ) ) ;
#289 = DIRECTION ( 'NONE',  ( -0.000000000000000000, -0.000000000000000000, -1.000000000000000000 ) ) ;
#290 = PLANE ( 'NONE',  #118 ) ;
#291 = CIRCLE ( 'NONE', #295, 2.750000000000000000 ) ;
#292 = DIRECTION ( 'NONE',  ( -0.000000000000000000, -0.000000000000000000, -1.000000000000000000 ) ) ;
#293 = VECTOR ( 'NONE', #169, 1000.000000000000000 ) ;
#294 = EDGE_CURVE ( 'NONE', #119, #86, #154, .T. ) ;
#295 = AXIS2_PLACEMENT_3D ( 'NONE', #237, #29, #25 ) ;
#296 = VERTEX_POINT ( 'NONE', #155 ) ;
#297 =( NAMED_UNIT ( * ) SI_UNIT ( $, .STERADIAN. ) SOLID_ANGLE_UNIT ( ) );
#298 = ORIENTED_EDGE ( 'NONE', *, *, #53, .F. ) ;
#299 = PERSON_AND_ORGANIZATION ( #133, #191 ) ;
#300 = ORIENTED_EDGE ( 'NONE', *, *, #272, .T. ) ;
#301 = PERSON_AND_ORGANIZATION ( #133, #191 ) ;
#302 = CC_DESIGN_PERSON_AND_ORGANIZATION_ASSIGNMENT ( #301, #278, ( #264 ) ) ;
#303 = APPROVAL_STATUS ( 'not_yet_approved' ) ;
#304 = DATE_TIME_ROLE ( 'classification_date' ) ;
#305 = DIRECTION ( 'NONE',  ( 1.000000000000000000, 0.000000000000000000, 0.000000000000000000 ) ) ;
#306 = CIRCLE ( 'NONE', #159, 2.750000000000000000 ) ;
#307 = PERSON_AND_ORGANIZATION ( #133, #191 ) ;
ENDSEC;
END-ISO-10303-21;
