ISO-10303-21;
HEADER;
FILE_DESCRIPTION (( 'STEP AP203' ),
    '1' );
FILE_NAME ('0fc9.STEP',
    '2022-06-20T10:12:43',
    ( '' ),
    ( '' ),
    'SwSTEP 2.0',
    'SolidWorks 2019',
    '' );
FILE_SCHEMA (( 'CONFIG_CONTROL_DESIGN' ));
ENDSEC;

DATA;
#1 = FACE_OUTER_BOUND ( 'NONE', #214, .T. ) ;
#2 = DIRECTION ( 'NONE',  ( -0.000000000000000000, -0.000000000000000000, -1.000000000000000000 ) ) ;
#3 = PERSON_AND_ORGANIZATION ( #213, #293 ) ;
#4 = CIRCLE ( 'NONE', #187, 1.600000000000000089 ) ;
#5 = PERSON_AND_ORGANIZATION_ROLE ( 'design_owner' ) ;
#6 = CC_DESIGN_PERSON_AND_ORGANIZATION_ASSIGNMENT ( #224, #226, ( #88 ) ) ;
#7 = DIRECTION ( 'NONE',  ( 1.000000000000000000, 0.000000000000000000, 0.000000000000000000 ) ) ;
#8 = APPROVAL_PERSON_ORGANIZATION ( #78, #251, #81 ) ;
#9 = DIRECTION ( 'NONE',  ( 1.000000000000000000, 0.000000000000000000, 0.000000000000000000 ) ) ;
#10 = ADVANCED_FACE ( 'NONE', ( #279 ), #11, .F. ) ;
#11 = TOROIDAL_SURFACE ( 'NONE', #124, 1.800000000000000266, 0.2000000000000000111 ) ;
#12 = ORIENTED_EDGE ( 'NONE', *, *, #62, .F. ) ;
#13 = DATE_AND_TIME ( #160, #122 ) ;
#14 = ORIENTED_EDGE ( 'NONE', *, *, #180, .T. ) ;
#15 = ORIENTED_EDGE ( 'NONE', *, *, #79, .F. ) ;
#16 = APPROVAL_STATUS ( 'not_yet_approved' ) ;
#17 = ORIENTED_EDGE ( 'NONE', *, *, #307, .T. ) ;
#18 = CIRCLE ( 'NONE', #121, 3.000000000000000444 ) ;
#19 = CC_DESIGN_APPROVAL ( #210, ( #176 ) ) ;
#20 = DIRECTION ( 'NONE',  ( 1.000000000000000000, 0.000000000000000000, 0.000000000000000000 ) ) ;
#21 = MANIFOLD_SOLID_BREP ( 'Zaoblit1', #149 ) ;
#22 = FACE_OUTER_BOUND ( 'NONE', #188, .T. ) ;
#23 = DIRECTION ( 'NONE',  ( 1.000000000000000000, 0.000000000000000000, 0.000000000000000000 ) ) ;
#24 = CARTESIAN_POINT ( 'NONE',  ( -3.000000000000000444, 0.000000000000000000, 0.000000000000000000 ) ) ;
#25 = CARTESIAN_POINT ( 'NONE',  ( -1.600000000000000089, 0.000000000000000000, 3.199999999999980638 ) ) ;
#26 = AXIS2_PLACEMENT_3D ( 'NONE', #215, #46, #94 ) ;
#27 =( NAMED_UNIT ( * ) SI_UNIT ( $, .STERADIAN. ) SOLID_ANGLE_UNIT ( ) );
#28 = AXIS2_PLACEMENT_3D ( 'NONE', #204, #178, #270 ) ;
#29 = DIRECTION ( 'NONE',  ( 1.000000000000000000, 0.000000000000000000, 0.000000000000000000 ) ) ;
#30 = EDGE_CURVE ( 'NONE', #232, #206, #193, .T. ) ;
#31 = FACE_OUTER_BOUND ( 'NONE', #90, .T. ) ;
#32 = DIRECTION ( 'NONE',  ( 1.000000000000000000, 0.000000000000000000, 0.000000000000000000 ) ) ;
#33 = CC_DESIGN_DATE_AND_TIME_ASSIGNMENT ( #271, #39, ( #162 ) ) ;
#34 = VECTOR ( 'NONE', #105, 1000.000000000000000 ) ;
#35 = DATE_AND_TIME ( #85, #73 ) ;
#36 = ORIENTED_EDGE ( 'NONE', *, *, #71, .T. ) ;
#37 = CIRCLE ( 'NONE', #243, 1.600000000000000089 ) ;
#38 = APPROVAL_DATE_TIME ( #56, #95 ) ;
#39 = DATE_TIME_ROLE ( 'creation_date' ) ;
#40 = ADVANCED_FACE ( 'NONE', ( #218 ), #143, .T. ) ;
#41 = EDGE_LOOP ( 'NONE', ( #82, #184, #17, #298 ) ) ;
#42 = APPROVAL_DATE_TIME ( #57, #251 ) ;
#43 = CYLINDRICAL_SURFACE ( 'NONE', #304, 1.600000000000000089 ) ;
#44 = VECTOR ( 'NONE', #146, 1000.000000000000000 ) ;
#45 = CARTESIAN_POINT ( 'NONE',  ( 3.000000000000000444, 3.673940397442060361E-16, 0.000000000000000000 ) ) ;
#46 = DIRECTION ( 'NONE',  ( 1.224646799147353207E-16, 1.000000000000000000, -0.000000000000000000 ) ) ;
#47 = PRODUCT_RELATED_PRODUCT_CATEGORY ( 'detail', '', ( #167 ) ) ;
#48 = CARTESIAN_POINT ( 'NONE',  ( 1.600000000000000089, 1.959434878635765230E-16, 633.0000000000000000 ) ) ;
#49 = DIRECTION ( 'NONE',  ( -0.000000000000000000, -0.000000000000000000, -1.000000000000000000 ) ) ;
#50 = DIRECTION ( 'NONE',  ( 0.000000000000000000, 0.000000000000000000, 1.000000000000000000 ) ) ;
#51 = CC_DESIGN_DATE_AND_TIME_ASSIGNMENT ( #13, #135, ( #88 ) ) ;
#52 = VECTOR ( 'NONE', #290, 1000.000000000000000 ) ;
#53 = LOCAL_TIME ( 12, 12, 43.00000000000000000, #154 ) ;
#54 = CARTESIAN_POINT ( 'NONE',  ( 0.000000000000000000, 0.000000000000000000, 3.000000000000000000 ) ) ;
#55 = PERSON_AND_ORGANIZATION ( #213, #293 ) ;
#56 = DATE_AND_TIME ( #247, #53 ) ;
#57 = DATE_AND_TIME ( #205, #165 ) ;
#58 = VERTEX_POINT ( 'NONE', #25 ) ;
#59 = AXIS2_PLACEMENT_3D ( 'NONE', #263, #234, #125 ) ;
#60 = COORDINATED_UNIVERSAL_TIME_OFFSET ( 1, 0, .AHEAD. ) ;
#61 = ORIENTED_EDGE ( 'NONE', *, *, #221, .F. ) ;
#62 = EDGE_CURVE ( 'NONE', #186, #58, #222, .T. ) ;
#63 = VERTEX_POINT ( 'NONE', #24 ) ;
#64 = AXIS2_PLACEMENT_3D ( 'NONE', #54, #202, #287 ) ;
#65 = ORIENTED_EDGE ( 'NONE', *, *, #89, .T. ) ;
#66 = PRODUCT_DEFINITION_SHAPE ( 'NONE', 'NONE',  #162 ) ;
#67 = DIRECTION ( 'NONE',  ( 0.000000000000000000, 0.000000000000000000, -1.000000000000000000 ) ) ;
#68 = PLANE ( 'NONE',  #181 ) ;
#69 = DIRECTION ( 'NONE',  ( 0.000000000000000000, 0.000000000000000000, 1.000000000000000000 ) ) ;
#70 = CARTESIAN_POINT ( 'NONE',  ( -3.000000000000000444, 0.000000000000000000, 3.000000000000000000 ) ) ;
#71 = EDGE_CURVE ( 'NONE', #58, #232, #266, .T. ) ;
#72 = LINE ( 'NONE', #197, #84 ) ;
#73 = LOCAL_TIME ( 12, 12, 43.00000000000000000, #134 ) ;
#74 = CARTESIAN_POINT ( 'NONE',  ( 0.000000000000000000, 0.000000000000000000, 3.000000000000000000 ) ) ;
#75 = CARTESIAN_POINT ( 'NONE',  ( 0.000000000000000000, 0.000000000000000000, 0.000000000000000000 ) ) ;
#76 = CARTESIAN_POINT ( 'NONE',  ( 3.000000000000000444, 3.673940397442060361E-16, 3.000000000000000000 ) ) ;
#77 = CIRCLE ( 'NONE', #297, 1.800000000000000266 ) ;
#78 = PERSON_AND_ORGANIZATION ( #213, #293 ) ;
#79 = EDGE_CURVE ( 'NONE', #63, #164, #274, .T. ) ;
#80 = FACE_OUTER_BOUND ( 'NONE', #212, .T. ) ;
#81 = APPROVAL_ROLE ( '' ) ;
#82 = ORIENTED_EDGE ( 'NONE', *, *, #171, .F. ) ;
#83 = ORIENTED_EDGE ( 'NONE', *, *, #71, .F. ) ;
#84 = VECTOR ( 'NONE', #169, 1000.000000000000000 ) ;
#85 = CALENDAR_DATE ( 2022, 20, 6 ) ;
#86 = VERTEX_POINT ( 'NONE', #48 ) ;
#87 = ORIENTED_EDGE ( 'NONE', *, *, #30, .T. ) ;
#88 = SECURITY_CLASSIFICATION ( '', '', #273 ) ;
#89 = EDGE_CURVE ( 'NONE', #280, #86, #4, .T. ) ;
#90 = EDGE_LOOP ( 'NONE', ( #65, #299 ) ) ;
#91 = APPLICATION_CONTEXT ( 'configuration controlled 3d designs of mechanical parts and assemblies' ) ;
#92 = CARTESIAN_POINT ( 'NONE',  ( 0.000000000000000000, 0.000000000000000000, 633.0000000000000000 ) ) ;
#93 = CARTESIAN_POINT ( 'NONE',  ( 1.800000000000000266, 0.000000000000000000, 2.999999999999990674 ) ) ;
#94 = DIRECTION ( 'NONE',  ( -1.000000000000000000, 1.224646799147354686E-16, 0.000000000000000000 ) ) ;
#95 = APPROVAL ( #96, 'NEURÈENÝ' ) ;
#96 = APPROVAL_STATUS ( 'not_yet_approved' ) ;
#97 = DIRECTION ( 'NONE',  ( -1.000000000000000000, 0.000000000000000000, 0.000000000000000000 ) ) ;
#98 = DIRECTION ( 'NONE',  ( 1.000000000000000000, 0.000000000000000000, 0.000000000000000000 ) ) ;
#99 = CC_DESIGN_PERSON_AND_ORGANIZATION_ASSIGNMENT ( #249, #211, ( #176 ) ) ;
#100 = LINE ( 'NONE', #130, #52 ) ;
#101 = AXIS2_PLACEMENT_3D ( 'NONE', #74, #294, #7 ) ;
#102 = APPLICATION_PROTOCOL_DEFINITION ( 'international standard', 'config_control_design', 1994, #91 ) ;
#103 = EDGE_CURVE ( 'NONE', #254, #164, #72, .T. ) ;
#104 = AXIS2_PLACEMENT_3D ( 'NONE', #305, #174, #67 ) ;
#105 = DIRECTION ( 'NONE',  ( -0.000000000000000000, -0.000000000000000000, -1.000000000000000000 ) ) ;
#106 =( GEOMETRIC_REPRESENTATION_CONTEXT ( 3 ) GLOBAL_UNCERTAINTY_ASSIGNED_CONTEXT ( ( #189 ) ) GLOBAL_UNIT_ASSIGNED_CONTEXT ( ( #269, #246, #27 ) ) REPRESENTATION_CONTEXT ( 'NONE', 'WORKASPACE' ) );
#107 = CARTESIAN_POINT ( 'NONE',  ( -1.800000000000000266, 2.204364238465236069E-16, 2.999999999999990674 ) ) ;
#108 = COORDINATED_UNIVERSAL_TIME_OFFSET ( 1, 0, .AHEAD. ) ;
#109 = ORIENTED_EDGE ( 'NONE', *, *, #30, .F. ) ;
#110 = ORIENTED_EDGE ( 'NONE', *, *, #278, .F. ) ;
#111 = CC_DESIGN_APPROVAL ( #251, ( #162 ) ) ;
#112 = ORIENTED_EDGE ( 'NONE', *, *, #103, .T. ) ;
#113 = APPROVAL_DATE_TIME ( #35, #210 ) ;
#114 = ORIENTED_EDGE ( 'NONE', *, *, #244, .T. ) ;
#115 = ORIENTED_EDGE ( 'NONE', *, *, #62, .T. ) ;
#116 = APPROVAL_PERSON_ORGANIZATION ( #217, #95, #288 ) ;
#117 = DIRECTION ( 'NONE',  ( -0.000000000000000000, -0.000000000000000000, -1.000000000000000000 ) ) ;
#118 = CARTESIAN_POINT ( 'NONE',  ( 0.000000000000000000, 0.000000000000000000, 3.000000000000000000 ) ) ;
#119 = ADVANCED_FACE ( 'NONE', ( #284, #22 ), #123, .T. ) ;
#120 = DIRECTION ( 'NONE',  ( 0.000000000000000000, 0.000000000000000000, 1.000000000000000000 ) ) ;
#121 = AXIS2_PLACEMENT_3D ( 'NONE', #147, #220, #98 ) ;
#122 = LOCAL_TIME ( 12, 12, 43.00000000000000000, #60 ) ;
#123 = PLANE ( 'NONE',  #240 ) ;
#124 = AXIS2_PLACEMENT_3D ( 'NONE', #133, #225, #23 ) ;
#125 = DIRECTION ( 'NONE',  ( 1.000000000000000000, 0.000000000000000000, 0.000000000000000000 ) ) ;
#126 = MECHANICAL_CONTEXT ( 'NONE', #256, 'mechanical' ) ;
#127 = AXIS2_PLACEMENT_3D ( 'NONE', #118, #261, #257 ) ;
#128 = PLANE ( 'NONE',  #242 ) ;
#129 = AXIS2_PLACEMENT_3D ( 'NONE', #195, #237, #303 ) ;
#130 = CARTESIAN_POINT ( 'NONE',  ( -3.000000000000000444, 0.000000000000000000, 3.000000000000000000 ) ) ;
#131 = ADVANCED_FACE ( 'NONE', ( #170 ), #43, .T. ) ;
#132 = PERSON_AND_ORGANIZATION_ROLE ( 'design_supplier' ) ;
#133 = CARTESIAN_POINT ( 'NONE',  ( 0.000000000000000000, 0.000000000000000000, 3.199999999999980638 ) ) ;
#134 = COORDINATED_UNIVERSAL_TIME_OFFSET ( 1, 0, .AHEAD. ) ;
#135 = DATE_TIME_ROLE ( 'classification_date' ) ;
#136 = ORIENTED_EDGE ( 'NONE', *, *, #171, .T. ) ;
#137 = APPROVAL_ROLE ( '' ) ;
#138 = ADVANCED_FACE ( 'NONE', ( #1 ), #68, .F. ) ;
#139 = ORIENTED_EDGE ( 'NONE', *, *, #103, .F. ) ;
#140 = ORIENTED_EDGE ( 'NONE', *, *, #262, .T. ) ;
#141 = CARTESIAN_POINT ( 'NONE',  ( 0.000000000000000000, 0.000000000000000000, 0.000000000000000000 ) ) ;
#142 = AXIS2_PLACEMENT_3D ( 'NONE', #264, #49, #233 ) ;
#143 = CYLINDRICAL_SURFACE ( 'NONE', #129, 3.000000000000000444 ) ;
#144 = ADVANCED_FACE ( 'NONE', ( #173 ), #175, .T. ) ;
#145 = AXIS2_PLACEMENT_3D ( 'NONE', #141, #302, #20 ) ;
#146 = DIRECTION ( 'NONE',  ( -0.000000000000000000, -0.000000000000000000, -1.000000000000000000 ) ) ;
#147 = CARTESIAN_POINT ( 'NONE',  ( 0.000000000000000000, 0.000000000000000000, 0.000000000000000000 ) ) ;
#148 = EDGE_CURVE ( 'NONE', #164, #63, #18, .T. ) ;
#149 = CLOSED_SHELL ( 'NONE', ( #10, #131, #255, #40, #119, #138, #144, #292, #236 ) ) ;
#150 = APPLICATION_PROTOCOL_DEFINITION ( 'international standard', 'config_control_design', 1994, #256 ) ;
#151 = DIRECTION ( 'NONE',  ( 0.000000000000000000, 0.000000000000000000, 1.000000000000000000 ) ) ;
#152 = CYLINDRICAL_SURFACE ( 'NONE', #64, 3.000000000000000444 ) ;
#153 = CC_DESIGN_PERSON_AND_ORGANIZATION_ASSIGNMENT ( #3, #5, ( #167 ) ) ;
#154 = COORDINATED_UNIVERSAL_TIME_OFFSET ( 1, 0, .AHEAD. ) ;
#155 = DIRECTION ( 'NONE',  ( 1.000000000000000000, 0.000000000000000000, 0.000000000000000000 ) ) ;
#156 = FACE_OUTER_BOUND ( 'NONE', #190, .T. ) ;
#157 = CALENDAR_DATE ( 2022, 20, 6 ) ;
#158 = CARTESIAN_POINT ( 'NONE',  ( 0.000000000000000000, 0.000000000000000000, 3.000000000000000000 ) ) ;
#159 = ORIENTED_EDGE ( 'NONE', *, *, #148, .F. ) ;
#160 = CALENDAR_DATE ( 2022, 20, 6 ) ;
#161 = ORIENTED_EDGE ( 'NONE', *, *, #148, .T. ) ;
#162 = PRODUCT_DEFINITION ( 'NEZNÁMÝ', '', #176, #276 ) ;
#163 = COORDINATED_UNIVERSAL_TIME_OFFSET ( 1, 0, .AHEAD. ) ;
#164 = VERTEX_POINT ( 'NONE', #45 ) ;
#165 = LOCAL_TIME ( 12, 12, 43.00000000000000000, #163 ) ;
#166 = VERTEX_POINT ( 'NONE', #70 ) ;
#167 = PRODUCT ( '0fc9', '0fc9', '', ( #126 ) ) ;
#168 = AXIS2_PLACEMENT_3D ( 'NONE', #158, #117, #285 ) ;
#169 = DIRECTION ( 'NONE',  ( -0.000000000000000000, -0.000000000000000000, -1.000000000000000000 ) ) ;
#170 = FACE_OUTER_BOUND ( 'NONE', #230, .T. ) ;
#171 = EDGE_CURVE ( 'NONE', #86, #186, #259, .T. ) ;
#172 = SHAPE_DEFINITION_REPRESENTATION ( #66, #265 ) ;
#173 = FACE_OUTER_BOUND ( 'NONE', #41, .T. ) ;
#174 = DIRECTION ( 'NONE',  ( 0.000000000000000000, -1.000000000000000000, 0.000000000000000000 ) ) ;
#175 = CYLINDRICAL_SURFACE ( 'NONE', #142, 1.600000000000000089 ) ;
#176 = PRODUCT_DEFINITION_FORMATION_WITH_SPECIFIED_SOURCE ( 'LIBOVOLNÝ', '', #167, .NOT_KNOWN. ) ;
#177 = CARTESIAN_POINT ( 'NONE',  ( -1.600000000000000089, 0.000000000000000000, 633.0000000000000000 ) ) ;
#178 = DIRECTION ( 'NONE',  ( 0.000000000000000000, 0.000000000000000000, 1.000000000000000000 ) ) ;
#179 = CARTESIAN_POINT ( 'NONE',  ( 0.000000000000000000, 0.000000000000000000, 3.199999999999980638 ) ) ;
#180 = EDGE_CURVE ( 'NONE', #254, #166, #258, .T. ) ;
#181 = AXIS2_PLACEMENT_3D ( 'NONE', #235, #120, #199 ) ;
#182 = CARTESIAN_POINT ( 'NONE',  ( 0.000000000000000000, 0.000000000000000000, 633.0000000000000000 ) ) ;
#183 = PERSON_AND_ORGANIZATION ( #213, #293 ) ;
#184 = ORIENTED_EDGE ( 'NONE', *, *, #89, .F. ) ;
#185 = APPROVAL_STATUS ( 'not_yet_approved' ) ;
#186 = VERTEX_POINT ( 'NONE', #216 ) ;
#187 = AXIS2_PLACEMENT_3D ( 'NONE', #92, #69, #239 ) ;
#188 = EDGE_LOOP ( 'NONE', ( #140, #14 ) ) ;
#189 = UNCERTAINTY_MEASURE_WITH_UNIT (LENGTH_MEASURE( 1.000000000000000082E-05 ), #269, 'distance_accuracy_value', 'NONE');
#190 = EDGE_LOOP ( 'NONE', ( #300, #112, #161, #296 ) ) ;
#191 = CC_DESIGN_SECURITY_CLASSIFICATION ( #88, ( #176 ) ) ;
#192 = ORIENTED_EDGE ( 'NONE', *, *, #229, .F. ) ;
#193 = CIRCLE ( 'NONE', #168, 1.800000000000000266 ) ;
#194 = CARTESIAN_POINT ( 'NONE',  ( 0.000000000000000000, 0.000000000000000000, 3.000000000000000000 ) ) ;
#195 = CARTESIAN_POINT ( 'NONE',  ( 0.000000000000000000, 0.000000000000000000, 3.000000000000000000 ) ) ;
#196 = CIRCLE ( 'NONE', #104, 0.2000000000000000944 ) ;
#197 = CARTESIAN_POINT ( 'NONE',  ( 3.000000000000000444, 3.673940397442060361E-16, 3.000000000000000000 ) ) ;
#198 = CC_DESIGN_PERSON_AND_ORGANIZATION_ASSIGNMENT ( #55, #132, ( #176 ) ) ;
#199 = DIRECTION ( 'NONE',  ( 1.000000000000000000, 0.000000000000000000, -0.000000000000000000 ) ) ;
#200 = CARTESIAN_POINT ( 'NONE',  ( 1.600000000000000089, 1.959434878635765230E-16, 633.0000000000000000 ) ) ;
#201 = CC_DESIGN_APPROVAL ( #95, ( #88 ) ) ;
#202 = DIRECTION ( 'NONE',  ( -0.000000000000000000, -0.000000000000000000, -1.000000000000000000 ) ) ;
#203 = LINE ( 'NONE', #268, #34 ) ;
#204 = CARTESIAN_POINT ( 'NONE',  ( 0.000000000000000000, 0.000000000000000000, 3.199999999999980638 ) ) ;
#205 = CALENDAR_DATE ( 2022, 20, 6 ) ;
#206 = VERTEX_POINT ( 'NONE', #93 ) ;
#207 = AXIS2_PLACEMENT_3D ( 'NONE', #75, #151, #29 ) ;
#208 = PERSON_AND_ORGANIZATION ( #213, #293 ) ;
#209 = ORIENTED_EDGE ( 'NONE', *, *, #79, .T. ) ;
#210 = APPROVAL ( #185, 'NEURÈENÝ' ) ;
#211 = PERSON_AND_ORGANIZATION_ROLE ( 'creator' ) ;
#212 = EDGE_LOOP ( 'NONE', ( #83, #12, #231, #109 ) ) ;
#213 = PERSON ( 'NEURÈENÝ', 'NEURÈENÝ', 'NEURÈENÝ', ('NEURÈENÝ'), ('NEURÈENÝ'), ('NEURÈENÝ') ) ;
#214 = EDGE_LOOP ( 'NONE', ( #15, #159 ) ) ;
#215 = CARTESIAN_POINT ( 'NONE',  ( -1.800000000000000266, 2.204364238465236069E-16, 3.199999999999980638 ) ) ;
#216 = CARTESIAN_POINT ( 'NONE',  ( 1.600000000000000089, 1.959434878635765230E-16, 3.199999999999980638 ) ) ;
#217 = PERSON_AND_ORGANIZATION ( #213, #293 ) ;
#218 = FACE_OUTER_BOUND ( 'NONE', #252, .T. ) ;
#219 = DIRECTION ( 'NONE',  ( 0.000000000000000000, 0.000000000000000000, 1.000000000000000000 ) ) ;
#220 = DIRECTION ( 'NONE',  ( 0.000000000000000000, 0.000000000000000000, 1.000000000000000000 ) ) ;
#221 = EDGE_CURVE ( 'NONE', #186, #206, #196, .T. ) ;
#222 = CIRCLE ( 'NONE', #59, 1.600000000000000089 ) ;
#223 = DIRECTION ( 'NONE',  ( 1.000000000000000000, 0.000000000000000000, -0.000000000000000000 ) ) ;
#224 = PERSON_AND_ORGANIZATION ( #213, #293 ) ;
#225 = DIRECTION ( 'NONE',  ( 0.000000000000000000, 0.000000000000000000, 1.000000000000000000 ) ) ;
#226 = PERSON_AND_ORGANIZATION_ROLE ( 'classification_officer' ) ;
#227 = ORIENTED_EDGE ( 'NONE', *, *, #307, .F. ) ;
#228 = CIRCLE ( 'NONE', #101, 3.000000000000000444 ) ;
#229 = EDGE_CURVE ( 'NONE', #206, #232, #77, .T. ) ;
#230 = EDGE_LOOP ( 'NONE', ( #250, #136, #115, #227 ) ) ;
#231 = ORIENTED_EDGE ( 'NONE', *, *, #221, .T. ) ;
#232 = VERTEX_POINT ( 'NONE', #107 ) ;
#233 = DIRECTION ( 'NONE',  ( -1.000000000000000000, 0.000000000000000000, 0.000000000000000000 ) ) ;
#234 = DIRECTION ( 'NONE',  ( 0.000000000000000000, 0.000000000000000000, 1.000000000000000000 ) ) ;
#235 = CARTESIAN_POINT ( 'NONE',  ( 0.000000000000000000, 0.000000000000000000, 0.000000000000000000 ) ) ;
#236 = ADVANCED_FACE ( 'NONE', ( #80 ), #291, .F. ) ;
#237 = DIRECTION ( 'NONE',  ( -0.000000000000000000, -0.000000000000000000, -1.000000000000000000 ) ) ;
#238 = AXIS2_PLACEMENT_3D ( 'NONE', #182, #289, #155 ) ;
#239 = DIRECTION ( 'NONE',  ( 1.000000000000000000, 0.000000000000000000, 0.000000000000000000 ) ) ;
#240 = AXIS2_PLACEMENT_3D ( 'NONE', #194, #219, #306 ) ;
#241 = CARTESIAN_POINT ( 'NONE',  ( 0.000000000000000000, 0.000000000000000000, 3.000000000000000000 ) ) ;
#242 = AXIS2_PLACEMENT_3D ( 'NONE', #245, #267, #223 ) ;
#243 = AXIS2_PLACEMENT_3D ( 'NONE', #179, #50, #32 ) ;
#244 = EDGE_CURVE ( 'NONE', #166, #63, #100, .T. ) ;
#245 = CARTESIAN_POINT ( 'NONE',  ( 0.000000000000000000, 0.000000000000000000, 633.0000000000000000 ) ) ;
#246 =( NAMED_UNIT ( * ) PLANE_ANGLE_UNIT ( ) SI_UNIT ( $, .RADIAN. ) );
#247 = CALENDAR_DATE ( 2022, 20, 6 ) ;
#248 = ORIENTED_EDGE ( 'NONE', *, *, #262, .F. ) ;
#249 = PERSON_AND_ORGANIZATION ( #213, #293 ) ;
#250 = ORIENTED_EDGE ( 'NONE', *, *, #295, .F. ) ;
#251 = APPROVAL ( #16, 'NEURÈENÝ' ) ;
#252 = EDGE_LOOP ( 'NONE', ( #139, #248, #114, #209 ) ) ;
#253 = PERSON_AND_ORGANIZATION_ROLE ( 'creator' ) ;
#254 = VERTEX_POINT ( 'NONE', #76 ) ;
#255 = ADVANCED_FACE ( 'NONE', ( #156 ), #152, .T. ) ;
#256 = APPLICATION_CONTEXT ( 'configuration controlled 3d designs of mechanical parts and assemblies' ) ;
#257 = DIRECTION ( 'NONE',  ( 1.000000000000000000, 0.000000000000000000, 0.000000000000000000 ) ) ;
#258 = CIRCLE ( 'NONE', #127, 3.000000000000000444 ) ;
#259 = LINE ( 'NONE', #200, #44 ) ;
#260 = CIRCLE ( 'NONE', #238, 1.600000000000000089 ) ;
#261 = DIRECTION ( 'NONE',  ( 0.000000000000000000, 0.000000000000000000, 1.000000000000000000 ) ) ;
#262 = EDGE_CURVE ( 'NONE', #166, #254, #228, .T. ) ;
#263 = CARTESIAN_POINT ( 'NONE',  ( 0.000000000000000000, 0.000000000000000000, 3.199999999999980638 ) ) ;
#264 = CARTESIAN_POINT ( 'NONE',  ( 0.000000000000000000, 0.000000000000000000, 633.0000000000000000 ) ) ;
#265 = ADVANCED_BREP_SHAPE_REPRESENTATION ( '0fc9', ( #21, #207 ), #106 ) ;
#266 = CIRCLE ( 'NONE', #26, 0.1999999999999998723 ) ;
#267 = DIRECTION ( 'NONE',  ( 0.000000000000000000, 0.000000000000000000, 1.000000000000000000 ) ) ;
#268 = CARTESIAN_POINT ( 'NONE',  ( -1.600000000000000089, 0.000000000000000000, 633.0000000000000000 ) ) ;
#269 =( LENGTH_UNIT ( ) NAMED_UNIT ( * ) SI_UNIT ( .MILLI., .METRE. ) );
#270 = DIRECTION ( 'NONE',  ( 1.000000000000000000, 0.000000000000000000, 0.000000000000000000 ) ) ;
#271 = DATE_AND_TIME ( #157, #301 ) ;
#272 = EDGE_LOOP ( 'NONE', ( #275, #87 ) ) ;
#273 = SECURITY_CLASSIFICATION_LEVEL ( 'unclassified' ) ;
#274 = CIRCLE ( 'NONE', #145, 3.000000000000000444 ) ;
#275 = ORIENTED_EDGE ( 'NONE', *, *, #229, .T. ) ;
#276 = DESIGN_CONTEXT ( 'detailed design', #91, 'design' ) ;
#277 = EDGE_LOOP ( 'NONE', ( #110, #36, #192, #61 ) ) ;
#278 = EDGE_CURVE ( 'NONE', #58, #186, #37, .T. ) ;
#279 = FACE_OUTER_BOUND ( 'NONE', #277, .T. ) ;
#280 = VERTEX_POINT ( 'NONE', #177 ) ;
#281 = DIRECTION ( 'NONE',  ( -0.000000000000000000, -0.000000000000000000, -1.000000000000000000 ) ) ;
#282 = CARTESIAN_POINT ( 'NONE',  ( 0.000000000000000000, 0.000000000000000000, 633.0000000000000000 ) ) ;
#283 = APPROVAL_PERSON_ORGANIZATION ( #208, #210, #137 ) ;
#284 = FACE_BOUND ( 'NONE', #272, .T. ) ;
#285 = DIRECTION ( 'NONE',  ( 1.000000000000000000, 0.000000000000000000, 0.000000000000000000 ) ) ;
#286 = CC_DESIGN_PERSON_AND_ORGANIZATION_ASSIGNMENT ( #183, #253, ( #162 ) ) ;
#287 = DIRECTION ( 'NONE',  ( -1.000000000000000000, 0.000000000000000000, 0.000000000000000000 ) ) ;
#288 = APPROVAL_ROLE ( '' ) ;
#289 = DIRECTION ( 'NONE',  ( 0.000000000000000000, 0.000000000000000000, 1.000000000000000000 ) ) ;
#290 = DIRECTION ( 'NONE',  ( -0.000000000000000000, -0.000000000000000000, -1.000000000000000000 ) ) ;
#291 = TOROIDAL_SURFACE ( 'NONE', #28, 1.800000000000000266, 0.2000000000000000111 ) ;
#292 = ADVANCED_FACE ( 'NONE', ( #31 ), #128, .T. ) ;
#293 = ORGANIZATION ( 'NEURÈENÝ', 'NEURÈENÝ', '' ) ;
#294 = DIRECTION ( 'NONE',  ( 0.000000000000000000, 0.000000000000000000, 1.000000000000000000 ) ) ;
#295 = EDGE_CURVE ( 'NONE', #86, #280, #260, .T. ) ;
#296 = ORIENTED_EDGE ( 'NONE', *, *, #244, .F. ) ;
#297 = AXIS2_PLACEMENT_3D ( 'NONE', #241, #2, #9 ) ;
#298 = ORIENTED_EDGE ( 'NONE', *, *, #278, .T. ) ;
#299 = ORIENTED_EDGE ( 'NONE', *, *, #295, .T. ) ;
#300 = ORIENTED_EDGE ( 'NONE', *, *, #180, .F. ) ;
#301 = LOCAL_TIME ( 12, 12, 43.00000000000000000, #108 ) ;
#302 = DIRECTION ( 'NONE',  ( 0.000000000000000000, 0.000000000000000000, 1.000000000000000000 ) ) ;
#303 = DIRECTION ( 'NONE',  ( -1.000000000000000000, 0.000000000000000000, 0.000000000000000000 ) ) ;
#304 = AXIS2_PLACEMENT_3D ( 'NONE', #282, #281, #97 ) ;
#305 = CARTESIAN_POINT ( 'NONE',  ( 1.800000000000000266, 0.000000000000000000, 3.199999999999980638 ) ) ;
#306 = DIRECTION ( 'NONE',  ( 1.000000000000000000, 0.000000000000000000, -0.000000000000000000 ) ) ;
#307 = EDGE_CURVE ( 'NONE', #280, #58, #203, .T. ) ;
ENDSEC;
END-ISO-10303-21;
