ISO-10303-21;
HEADER;
FILE_DESCRIPTION (( 'STEP AP203' ),
    '1' );
FILE_NAME ('0389.STEP',
    '2022-06-20T10:30:01',
    ( '' ),
    ( '' ),
    'SwSTEP 2.0',
    'SolidWorks 2019',
    '' );
FILE_SCHEMA (( 'CONFIG_CONTROL_DESIGN' ));
ENDSEC;

DATA;
#1 = ORIENTED_EDGE ( 'NONE', *, *, #79, .T. ) ;
#2 = AXIS2_PLACEMENT_3D ( 'NONE', #264, #9, #286 ) ;
#3 = CC_DESIGN_SECURITY_CLASSIFICATION ( #72, ( #200 ) ) ;
#4 = DIRECTION ( 'NONE',  ( 1.000000000000000000, 0.000000000000000000, 0.000000000000000000 ) ) ;
#5 = VECTOR ( 'NONE', #277, 1000.000000000000000 ) ;
#6 = DIRECTION ( 'NONE',  ( 0.000000000000000000, 0.000000000000000000, 1.000000000000000000 ) ) ;
#7 = COORDINATED_UNIVERSAL_TIME_OFFSET ( 1, 0, .AHEAD. ) ;
#8 = FACE_OUTER_BOUND ( 'NONE', #16, .T. ) ;
#9 = DIRECTION ( 'NONE',  ( -0.000000000000000000, -0.000000000000000000, -1.000000000000000000 ) ) ;
#10 = APPROVAL ( #220, 'NEURÈENÝ' ) ;
#11 = PERSON_AND_ORGANIZATION ( #210, #100 ) ;
#12 = VECTOR ( 'NONE', #43, 1000.000000000000000 ) ;
#13 = APPLICATION_PROTOCOL_DEFINITION ( 'international standard', 'config_control_design', 1994, #295 ) ;
#14 = ORIENTED_EDGE ( 'NONE', *, *, #33, .F. ) ;
#15 =( NAMED_UNIT ( * ) PLANE_ANGLE_UNIT ( ) SI_UNIT ( $, .RADIAN. ) );
#16 = EDGE_LOOP ( 'NONE', ( #23, #84, #254, #36 ) ) ;
#17 = APPROVAL_DATE_TIME ( #76, #183 ) ;
#18 = COORDINATED_UNIVERSAL_TIME_OFFSET ( 1, 0, .AHEAD. ) ;
#19 = COORDINATED_UNIVERSAL_TIME_OFFSET ( 1, 0, .AHEAD. ) ;
#20 = ORIENTED_EDGE ( 'NONE', *, *, #75, .T. ) ;
#21 = DIRECTION ( 'NONE',  ( 0.000000000000000000, 0.000000000000000000, 1.000000000000000000 ) ) ;
#22 = AXIS2_PLACEMENT_3D ( 'NONE', #284, #116, #66 ) ;
#23 = ORIENTED_EDGE ( 'NONE', *, *, #150, .F. ) ;
#24 = APPROVAL ( #120, 'NEURÈENÝ' ) ;
#25 = ORIENTED_EDGE ( 'NONE', *, *, #300, .F. ) ;
#26 = CARTESIAN_POINT ( 'NONE',  ( 0.000000000000000000, 0.000000000000000000, 1.399999999999998579 ) ) ;
#27 = CIRCLE ( 'NONE', #192, 0.1999999999999999833 ) ;
#28 = LOCAL_TIME ( 12, 30, 1.000000000000000000, #77 ) ;
#29 = DIRECTION ( 'NONE',  ( -0.000000000000000000, -0.000000000000000000, -1.000000000000000000 ) ) ;
#30 = PRODUCT_RELATED_PRODUCT_CATEGORY ( 'detail', '', ( #133 ) ) ;
#31 = FACE_OUTER_BOUND ( 'NONE', #185, .T. ) ;
#32 = CYLINDRICAL_SURFACE ( 'NONE', #215, 1.250000000000000000 ) ;
#33 = EDGE_CURVE ( 'NONE', #74, #182, #230, .T. ) ;
#34 = CARTESIAN_POINT ( 'NONE',  ( 0.000000000000000000, 0.000000000000000000, 1.199999999999999956 ) ) ;
#35 = CIRCLE ( 'NONE', #206, 0.5000000000000000000 ) ;
#36 = ORIENTED_EDGE ( 'NONE', *, *, #282, .F. ) ;
#37 = DIRECTION ( 'NONE',  ( 0.000000000000000000, 0.000000000000000000, 1.000000000000000000 ) ) ;
#38 = CIRCLE ( 'NONE', #255, 0.6999999999999999556 ) ;
#39 = PERSON_AND_ORGANIZATION ( #210, #100 ) ;
#40 =( LENGTH_UNIT ( ) NAMED_UNIT ( * ) SI_UNIT ( .MILLI., .METRE. ) );
#41 = CC_DESIGN_PERSON_AND_ORGANIZATION_ASSIGNMENT ( #11, #291, ( #200 ) ) ;
#42 = LINE ( 'NONE', #197, #5 ) ;
#43 = DIRECTION ( 'NONE',  ( -0.000000000000000000, -0.000000000000000000, -1.000000000000000000 ) ) ;
#44 = DIRECTION ( 'NONE',  ( 1.000000000000000000, 0.000000000000000000, -0.000000000000000000 ) ) ;
#45 = DIRECTION ( 'NONE',  ( 0.000000000000000000, 0.000000000000000000, 1.000000000000000000 ) ) ;
#46 = CARTESIAN_POINT ( 'NONE',  ( 0.000000000000000000, 0.000000000000000000, 1.199999999999999956 ) ) ;
#47 = CARTESIAN_POINT ( 'NONE',  ( 0.000000000000000000, 0.000000000000000000, 1.399999999999998579 ) ) ;
#48 = DIRECTION ( 'NONE',  ( -0.000000000000000000, -0.000000000000000000, -1.000000000000000000 ) ) ;
#49 = DIRECTION ( 'NONE',  ( 0.000000000000000000, 0.000000000000000000, 1.000000000000000000 ) ) ;
#50 = DIRECTION ( 'NONE',  ( -0.000000000000000000, -0.000000000000000000, -1.000000000000000000 ) ) ;
#51 = APPROVAL_ROLE ( '' ) ;
#52 = ADVANCED_FACE ( 'NONE', ( #305, #249 ), #58, .T. ) ;
#53 = AXIS2_PLACEMENT_3D ( 'NONE', #187, #283, #259 ) ;
#54 = PERSON_AND_ORGANIZATION ( #210, #100 ) ;
#55 = APPROVAL_DATE_TIME ( #173, #24 ) ;
#56 = EDGE_LOOP ( 'NONE', ( #219, #151 ) ) ;
#57 = EDGE_CURVE ( 'NONE', #182, #180, #42, .T. ) ;
#58 = PLANE ( 'NONE',  #96 ) ;
#59 = AXIS2_PLACEMENT_3D ( 'NONE', #93, #49, #163 ) ;
#60 = LINE ( 'NONE', #198, #240 ) ;
#61 = CARTESIAN_POINT ( 'NONE',  ( 0.000000000000000000, 0.000000000000000000, 101.2000000000000171 ) ) ;
#62 = EDGE_LOOP ( 'NONE', ( #25, #1, #20, #108 ) ) ;
#63 = ORIENTED_EDGE ( 'NONE', *, *, #90, .F. ) ;
#64 = AXIS2_PLACEMENT_3D ( 'NONE', #102, #196, #193 ) ;
#65 = CARTESIAN_POINT ( 'NONE',  ( 0.000000000000000000, 0.000000000000000000, 1.199999999999999956 ) ) ;
#66 = DIRECTION ( 'NONE',  ( 1.000000000000000000, 0.000000000000000000, 0.000000000000000000 ) ) ;
#67 = CIRCLE ( 'NONE', #188, 0.5000000000000000000 ) ;
#68 = DIRECTION ( 'NONE',  ( 1.000000000000000000, 0.000000000000000000, 0.000000000000000000 ) ) ;
#69 = CYLINDRICAL_SURFACE ( 'NONE', #115, 0.5000000000000000000 ) ;
#70 = LOCAL_TIME ( 12, 30, 1.000000000000000000, #19 ) ;
#71 = SECURITY_CLASSIFICATION_LEVEL ( 'unclassified' ) ;
#72 = SECURITY_CLASSIFICATION ( '', '', #71 ) ;
#73 = APPROVAL_STATUS ( 'not_yet_approved' ) ;
#74 = VERTEX_POINT ( 'NONE', #154 ) ;
#75 = EDGE_CURVE ( 'NONE', #78, #121, #35, .T. ) ;
#76 = DATE_AND_TIME ( #294, #70 ) ;
#77 = COORDINATED_UNIVERSAL_TIME_OFFSET ( 1, 0, .AHEAD. ) ;
#78 = VERTEX_POINT ( 'NONE', #301 ) ;
#79 = EDGE_CURVE ( 'NONE', #257, #78, #60, .T. ) ;
#80 = EDGE_LOOP ( 'NONE', ( #86, #278 ) ) ;
#81 = DIRECTION ( 'NONE',  ( 0.000000000000000000, 0.000000000000000000, 1.000000000000000000 ) ) ;
#82 = EDGE_CURVE ( 'NONE', #180, #201, #275, .T. ) ;
#83 = EDGE_LOOP ( 'NONE', ( #110, #213 ) ) ;
#84 = ORIENTED_EDGE ( 'NONE', *, *, #265, .T. ) ;
#85 = EDGE_CURVE ( 'NONE', #172, #257, #270, .T. ) ;
#86 = ORIENTED_EDGE ( 'NONE', *, *, #85, .T. ) ;
#87 = CC_DESIGN_PERSON_AND_ORGANIZATION_ASSIGNMENT ( #221, #97, ( #133 ) ) ;
#88 = DIRECTION ( 'NONE',  ( 1.000000000000000000, 0.000000000000000000, 0.000000000000000000 ) ) ;
#89 = CYLINDRICAL_SURFACE ( 'NONE', #2, 0.5000000000000000000 ) ;
#90 = EDGE_CURVE ( 'NONE', #74, #201, #307, .T. ) ;
#91 = DIRECTION ( 'NONE',  ( 1.000000000000000000, 0.000000000000000000, 0.000000000000000000 ) ) ;
#92 = CIRCLE ( 'NONE', #99, 0.2000000000000000944 ) ;
#93 = CARTESIAN_POINT ( 'NONE',  ( 0.000000000000000000, 0.000000000000000000, 0.000000000000000000 ) ) ;
#94 = PRODUCT_DEFINITION ( 'NEZNÁMÝ', '', #200, #105 ) ;
#95 = CARTESIAN_POINT ( 'NONE',  ( -0.6999999999999999556, 8.572527594031473190E-17, 1.199999999999999289 ) ) ;
#96 = AXIS2_PLACEMENT_3D ( 'NONE', #46, #81, #135 ) ;
#97 = PERSON_AND_ORGANIZATION_ROLE ( 'design_owner' ) ;
#98 = ORIENTED_EDGE ( 'NONE', *, *, #289, .T. ) ;
#99 = AXIS2_PLACEMENT_3D ( 'NONE', #258, #112, #153 ) ;
#100 = ORGANIZATION ( 'NEURÈENÝ', 'NEURÈENÝ', '' ) ;
#101 = ORIENTED_EDGE ( 'NONE', *, *, #90, .T. ) ;
#102 = CARTESIAN_POINT ( 'NONE',  ( 0.000000000000000000, 0.000000000000000000, 0.000000000000000000 ) ) ;
#103 = TOROIDAL_SURFACE ( 'NONE', #117, 0.6999999999999999556, 0.2000000000000000111 ) ;
#104 = ORIENTED_EDGE ( 'NONE', *, *, #282, .T. ) ;
#105 = DESIGN_CONTEXT ( 'detailed design', #295, 'design' ) ;
#106 = AXIS2_PLACEMENT_3D ( 'NONE', #61, #226, #202 ) ;
#107 = APPLICATION_CONTEXT ( 'configuration controlled 3d designs of mechanical parts and assemblies' ) ;
#108 = ORIENTED_EDGE ( 'NONE', *, *, #289, .F. ) ;
#109 = DIRECTION ( 'NONE',  ( 1.000000000000000000, 0.000000000000000000, 0.000000000000000000 ) ) ;
#110 = ORIENTED_EDGE ( 'NONE', *, *, #82, .F. ) ;
#111 = ADVANCED_FACE ( 'NONE', ( #130 ), #225, .T. ) ;
#112 = DIRECTION ( 'NONE',  ( 0.000000000000000000, -1.000000000000000000, 0.000000000000000000 ) ) ;
#113 = CARTESIAN_POINT ( 'NONE',  ( 0.5000000000000000000, 6.123233995736766036E-17, 101.2000000000000171 ) ) ;
#114 = CARTESIAN_POINT ( 'NONE',  ( -0.5000000000000000000, 0.000000000000000000, 1.399999999999998579 ) ) ;
#115 = AXIS2_PLACEMENT_3D ( 'NONE', #205, #140, #207 ) ;
#116 = DIRECTION ( 'NONE',  ( 0.000000000000000000, 0.000000000000000000, 1.000000000000000000 ) ) ;
#117 = AXIS2_PLACEMENT_3D ( 'NONE', #26, #204, #186 ) ;
#118 = CARTESIAN_POINT ( 'NONE',  ( -1.250000000000000000, 0.000000000000000000, 0.000000000000000000 ) ) ;
#119 = ADVANCED_FACE ( 'NONE', ( #132 ), #148, .F. ) ;
#120 = APPROVAL_STATUS ( 'not_yet_approved' ) ;
#121 = VERTEX_POINT ( 'NONE', #114 ) ;
#122 = PERSON_AND_ORGANIZATION_ROLE ( 'classification_officer' ) ;
#123 = ADVANCED_FACE ( 'NONE', ( #290 ), #69, .T. ) ;
#124 = ORIENTED_EDGE ( 'NONE', *, *, #85, .F. ) ;
#125 = CC_DESIGN_DATE_AND_TIME_ASSIGNMENT ( #267, #238, ( #94 ) ) ;
#126 = CIRCLE ( 'NONE', #178, 0.5000000000000000000 ) ;
#127 = APPROVAL_PERSON_ORGANIZATION ( #252, #10, #158 ) ;
#128 = ORIENTED_EDGE ( 'NONE', *, *, #152, .T. ) ;
#129 = APPROVAL_DATE_TIME ( #176, #10 ) ;
#130 = FACE_OUTER_BOUND ( 'NONE', #80, .T. ) ;
#131 = CC_DESIGN_PERSON_AND_ORGANIZATION_ASSIGNMENT ( #296, #292, ( #94 ) ) ;
#132 = FACE_OUTER_BOUND ( 'NONE', #229, .T. ) ;
#133 = PRODUCT ( '0389', '0389', '', ( #274 ) ) ;
#134 = ORIENTED_EDGE ( 'NONE', *, *, #75, .F. ) ;
#135 = DIRECTION ( 'NONE',  ( 1.000000000000000000, 0.000000000000000000, -0.000000000000000000 ) ) ;
#136 = AXIS2_PLACEMENT_3D ( 'NONE', #253, #21, #156 ) ;
#137 = CARTESIAN_POINT ( 'NONE',  ( 0.000000000000000000, 0.000000000000000000, 1.199999999999999956 ) ) ;
#138 = DIRECTION ( 'NONE',  ( -1.000000000000000000, 0.000000000000000000, 0.000000000000000000 ) ) ;
#139 = ADVANCED_FACE ( 'NONE', ( #143 ), #165, .F. ) ;
#140 = DIRECTION ( 'NONE',  ( -0.000000000000000000, -0.000000000000000000, -1.000000000000000000 ) ) ;
#141 = CARTESIAN_POINT ( 'NONE',  ( -0.6999999999999999556, 8.572527594031471957E-17, 1.399999999999998579 ) ) ;
#142 = EDGE_CURVE ( 'NONE', #182, #74, #242, .T. ) ;
#143 = FACE_OUTER_BOUND ( 'NONE', #83, .T. ) ;
#144 = UNCERTAINTY_MEASURE_WITH_UNIT (LENGTH_MEASURE( 1.000000000000000082E-05 ), #40, 'distance_accuracy_value', 'NONE');
#145 = PERSON_AND_ORGANIZATION ( #210, #100 ) ;
#146 = COORDINATED_UNIVERSAL_TIME_OFFSET ( 1, 0, .AHEAD. ) ;
#147 = ORIENTED_EDGE ( 'NONE', *, *, #224, .T. ) ;
#148 = TOROIDAL_SURFACE ( 'NONE', #22, 0.6999999999999999556, 0.2000000000000000111 ) ;
#149 = ORIENTED_EDGE ( 'NONE', *, *, #265, .F. ) ;
#150 = EDGE_CURVE ( 'NONE', #121, #78, #126, .T. ) ;
#151 = ORIENTED_EDGE ( 'NONE', *, *, #33, .T. ) ;
#152 = EDGE_CURVE ( 'NONE', #195, #272, #199, .T. ) ;
#153 = DIRECTION ( 'NONE',  ( 0.000000000000000000, 0.000000000000000000, -1.000000000000000000 ) ) ;
#154 = CARTESIAN_POINT ( 'NONE',  ( 1.250000000000000000, 1.530808498934191571E-16, 1.199999999999999956 ) ) ;
#155 = CC_DESIGN_PERSON_AND_ORGANIZATION_ASSIGNMENT ( #269, #168, ( #200 ) ) ;
#156 = DIRECTION ( 'NONE',  ( 1.000000000000000000, 0.000000000000000000, 0.000000000000000000 ) ) ;
#157 = DIRECTION ( 'NONE',  ( 0.000000000000000000, 0.000000000000000000, 1.000000000000000000 ) ) ;
#158 = APPROVAL_ROLE ( '' ) ;
#159 = AXIS2_PLACEMENT_3D ( 'NONE', #223, #177, #181 ) ;
#160 = CARTESIAN_POINT ( 'NONE',  ( 0.000000000000000000, 0.000000000000000000, 1.399999999999998579 ) ) ;
#161 = ORIENTED_EDGE ( 'NONE', *, *, #276, .T. ) ;
#162 = CC_DESIGN_PERSON_AND_ORGANIZATION_ASSIGNMENT ( #145, #122, ( #72 ) ) ;
#163 = DIRECTION ( 'NONE',  ( 1.000000000000000000, 0.000000000000000000, 0.000000000000000000 ) ) ;
#164 = ADVANCED_FACE ( 'NONE', ( #166 ), #234, .T. ) ;
#165 = PLANE ( 'NONE',  #53 ) ;
#166 = FACE_OUTER_BOUND ( 'NONE', #271, .T. ) ;
#167 = DIRECTION ( 'NONE',  ( -1.000000000000000000, 0.000000000000000000, 0.000000000000000000 ) ) ;
#168 = PERSON_AND_ORGANIZATION_ROLE ( 'creator' ) ;
#169 = CARTESIAN_POINT ( 'NONE',  ( 0.000000000000000000, 0.000000000000000000, 1.199999999999999956 ) ) ;
#170 = CALENDAR_DATE ( 2022, 20, 6 ) ;
#171 = ORIENTED_EDGE ( 'NONE', *, *, #142, .F. ) ;
#172 = VERTEX_POINT ( 'NONE', #233 ) ;
#173 = DATE_AND_TIME ( #243, #287 ) ;
#174 = ORIENTED_EDGE ( 'NONE', *, *, #150, .T. ) ;
#175 = ADVANCED_BREP_SHAPE_REPRESENTATION ( '0389', ( #306, #64 ), #179 ) ;
#176 = DATE_AND_TIME ( #299, #184 ) ;
#177 = DIRECTION ( 'NONE',  ( 0.000000000000000000, 0.000000000000000000, 1.000000000000000000 ) ) ;
#178 = AXIS2_PLACEMENT_3D ( 'NONE', #47, #6, #68 ) ;
#179 =( GEOMETRIC_REPRESENTATION_CONTEXT ( 3 ) GLOBAL_UNCERTAINTY_ASSIGNED_CONTEXT ( ( #144 ) ) GLOBAL_UNIT_ASSIGNED_CONTEXT ( ( #40, #15, #297 ) ) REPRESENTATION_CONTEXT ( 'NONE', 'WORKASPACE' ) );
#180 = VERTEX_POINT ( 'NONE', #118 ) ;
#181 = DIRECTION ( 'NONE',  ( 1.000000000000000000, 0.000000000000000000, 0.000000000000000000 ) ) ;
#182 = VERTEX_POINT ( 'NONE', #288 ) ;
#183 = APPROVAL ( #73, 'NEURÈENÝ' ) ;
#184 = LOCAL_TIME ( 12, 30, 1.000000000000000000, #18 ) ;
#185 = EDGE_LOOP ( 'NONE', ( #216, #124, #98, #174 ) ) ;
#186 = DIRECTION ( 'NONE',  ( 1.000000000000000000, 0.000000000000000000, 0.000000000000000000 ) ) ;
#187 = CARTESIAN_POINT ( 'NONE',  ( 0.000000000000000000, 0.000000000000000000, 0.000000000000000000 ) ) ;
#188 = AXIS2_PLACEMENT_3D ( 'NONE', #245, #37, #191 ) ;
#189 = DIRECTION ( 'NONE',  ( -0.000000000000000000, -0.000000000000000000, -1.000000000000000000 ) ) ;
#190 = DIRECTION ( 'NONE',  ( 0.000000000000000000, 0.000000000000000000, 1.000000000000000000 ) ) ;
#191 = DIRECTION ( 'NONE',  ( 1.000000000000000000, 0.000000000000000000, 0.000000000000000000 ) ) ;
#192 = AXIS2_PLACEMENT_3D ( 'NONE', #141, #235, #209 ) ;
#193 = DIRECTION ( 'NONE',  ( 1.000000000000000000, 0.000000000000000000, 0.000000000000000000 ) ) ;
#194 = APPLICATION_PROTOCOL_DEFINITION ( 'international standard', 'config_control_design', 1994, #107 ) ;
#195 = VERTEX_POINT ( 'NONE', #231 ) ;
#196 = DIRECTION ( 'NONE',  ( 0.000000000000000000, 0.000000000000000000, 1.000000000000000000 ) ) ;
#197 = CARTESIAN_POINT ( 'NONE',  ( -1.250000000000000000, 0.000000000000000000, 1.199999999999999956 ) ) ;
#198 = CARTESIAN_POINT ( 'NONE',  ( 0.5000000000000000000, 6.123233995736766036E-17, 101.2000000000000171 ) ) ;
#199 = CIRCLE ( 'NONE', #236, 0.6999999999999999556 ) ;
#200 = PRODUCT_DEFINITION_FORMATION_WITH_SPECIFIED_SOURCE ( 'LIBOVOLNÝ', '', #133, .NOT_KNOWN. ) ;
#201 = VERTEX_POINT ( 'NONE', #211 ) ;
#202 = DIRECTION ( 'NONE',  ( 1.000000000000000000, 0.000000000000000000, 0.000000000000000000 ) ) ;
#203 = ORIENTED_EDGE ( 'NONE', *, *, #57, .F. ) ;
#204 = DIRECTION ( 'NONE',  ( 0.000000000000000000, 0.000000000000000000, 1.000000000000000000 ) ) ;
#205 = CARTESIAN_POINT ( 'NONE',  ( 0.000000000000000000, 0.000000000000000000, 101.2000000000000171 ) ) ;
#206 = AXIS2_PLACEMENT_3D ( 'NONE', #160, #45, #109 ) ;
#207 = DIRECTION ( 'NONE',  ( -1.000000000000000000, 0.000000000000000000, 0.000000000000000000 ) ) ;
#208 = AXIS2_PLACEMENT_3D ( 'NONE', #169, #190, #4 ) ;
#209 = DIRECTION ( 'NONE',  ( -1.000000000000000000, 1.224646799147352714E-16, 0.000000000000000000 ) ) ;
#210 = PERSON ( 'NEURÈENÝ', 'NEURÈENÝ', 'NEURÈENÝ', ('NEURÈENÝ'), ('NEURÈENÝ'), ('NEURÈENÝ') ) ;
#211 = CARTESIAN_POINT ( 'NONE',  ( 1.250000000000000000, 1.530808498934191571E-16, 0.000000000000000000 ) ) ;
#212 = CLOSED_SHELL ( 'NONE', ( #273, #123, #164, #222, #52, #139, #214, #111, #119 ) ) ;
#213 = ORIENTED_EDGE ( 'NONE', *, *, #276, .F. ) ;
#214 = ADVANCED_FACE ( 'NONE', ( #31 ), #89, .T. ) ;
#215 = AXIS2_PLACEMENT_3D ( 'NONE', #65, #29, #167 ) ;
#216 = ORIENTED_EDGE ( 'NONE', *, *, #79, .F. ) ;
#217 = ORIENTED_EDGE ( 'NONE', *, *, #57, .T. ) ;
#218 = APPROVAL_ROLE ( '' ) ;
#219 = ORIENTED_EDGE ( 'NONE', *, *, #142, .T. ) ;
#220 = APPROVAL_STATUS ( 'not_yet_approved' ) ;
#221 = PERSON_AND_ORGANIZATION ( #210, #100 ) ;
#222 = ADVANCED_FACE ( 'NONE', ( #262 ), #32, .T. ) ;
#223 = CARTESIAN_POINT ( 'NONE',  ( 0.000000000000000000, 0.000000000000000000, 1.199999999999999956 ) ) ;
#224 = EDGE_CURVE ( 'NONE', #272, #195, #38, .T. ) ;
#225 = PLANE ( 'NONE',  #285 ) ;
#226 = DIRECTION ( 'NONE',  ( 0.000000000000000000, 0.000000000000000000, 1.000000000000000000 ) ) ;
#227 = PRODUCT_DEFINITION_SHAPE ( 'NONE', 'NONE',  #94 ) ;
#228 = EDGE_LOOP ( 'NONE', ( #63, #171, #217, #241 ) ) ;
#229 = EDGE_LOOP ( 'NONE', ( #149, #134, #104, #293 ) ) ;
#230 = CIRCLE ( 'NONE', #159, 1.250000000000000000 ) ;
#231 = CARTESIAN_POINT ( 'NONE',  ( 0.6999999999999999556, 0.000000000000000000, 1.199999999999999289 ) ) ;
#232 = AXIS2_PLACEMENT_3D ( 'NONE', #34, #189, #138 ) ;
#233 = CARTESIAN_POINT ( 'NONE',  ( -0.5000000000000000000, 0.000000000000000000, 101.2000000000000171 ) ) ;
#234 = CYLINDRICAL_SURFACE ( 'NONE', #232, 1.250000000000000000 ) ;
#235 = DIRECTION ( 'NONE',  ( 1.224646799147353207E-16, 1.000000000000000000, -0.000000000000000000 ) ) ;
#236 = AXIS2_PLACEMENT_3D ( 'NONE', #263, #237, #91 ) ;
#237 = DIRECTION ( 'NONE',  ( -0.000000000000000000, -0.000000000000000000, -1.000000000000000000 ) ) ;
#238 = DATE_TIME_ROLE ( 'creation_date' ) ;
#239 = LINE ( 'NONE', #247, #260 ) ;
#240 = VECTOR ( 'NONE', #279, 1000.000000000000000 ) ;
#241 = ORIENTED_EDGE ( 'NONE', *, *, #82, .T. ) ;
#242 = CIRCLE ( 'NONE', #208, 1.250000000000000000 ) ;
#243 = CALENDAR_DATE ( 2022, 20, 6 ) ;
#244 = CC_DESIGN_APPROVAL ( #10, ( #72 ) ) ;
#245 = CARTESIAN_POINT ( 'NONE',  ( 0.000000000000000000, 0.000000000000000000, 101.2000000000000171 ) ) ;
#246 = DATE_TIME_ROLE ( 'classification_date' ) ;
#247 = CARTESIAN_POINT ( 'NONE',  ( -0.5000000000000000000, 0.000000000000000000, 101.2000000000000171 ) ) ;
#248 = CC_DESIGN_DATE_AND_TIME_ASSIGNMENT ( #302, #246, ( #72 ) ) ;
#249 = FACE_OUTER_BOUND ( 'NONE', #56, .T. ) ;
#250 = CALENDAR_DATE ( 2022, 20, 6 ) ;
#251 = CARTESIAN_POINT ( 'NONE',  ( 1.250000000000000000, 1.530808498934191571E-16, 1.199999999999999956 ) ) ;
#252 = PERSON_AND_ORGANIZATION ( #210, #100 ) ;
#253 = CARTESIAN_POINT ( 'NONE',  ( 0.000000000000000000, 0.000000000000000000, 0.000000000000000000 ) ) ;
#254 = ORIENTED_EDGE ( 'NONE', *, *, #152, .F. ) ;
#255 = AXIS2_PLACEMENT_3D ( 'NONE', #137, #48, #88 ) ;
#256 = LOCAL_TIME ( 12, 30, 1.000000000000000000, #7 ) ;
#257 = VERTEX_POINT ( 'NONE', #113 ) ;
#258 = CARTESIAN_POINT ( 'NONE',  ( 0.6999999999999999556, 0.000000000000000000, 1.399999999999998579 ) ) ;
#259 = DIRECTION ( 'NONE',  ( 1.000000000000000000, 0.000000000000000000, -0.000000000000000000 ) ) ;
#260 = VECTOR ( 'NONE', #50, 1000.000000000000000 ) ;
#261 = APPROVAL_PERSON_ORGANIZATION ( #39, #183, #218 ) ;
#262 = FACE_OUTER_BOUND ( 'NONE', #228, .T. ) ;
#263 = CARTESIAN_POINT ( 'NONE',  ( 0.000000000000000000, 0.000000000000000000, 1.199999999999999956 ) ) ;
#264 = CARTESIAN_POINT ( 'NONE',  ( 0.000000000000000000, 0.000000000000000000, 101.2000000000000171 ) ) ;
#265 = EDGE_CURVE ( 'NONE', #121, #272, #27, .T. ) ;
#266 = APPROVAL_PERSON_ORGANIZATION ( #54, #24, #51 ) ;
#267 = DATE_AND_TIME ( #170, #28 ) ;
#268 = EDGE_LOOP ( 'NONE', ( #128, #147 ) ) ;
#269 = PERSON_AND_ORGANIZATION ( #210, #100 ) ;
#270 = CIRCLE ( 'NONE', #106, 0.5000000000000000000 ) ;
#271 = EDGE_LOOP ( 'NONE', ( #14, #101, #161, #203 ) ) ;
#272 = VERTEX_POINT ( 'NONE', #95 ) ;
#273 = ADVANCED_FACE ( 'NONE', ( #8 ), #103, .F. ) ;
#274 = MECHANICAL_CONTEXT ( 'NONE', #107, 'mechanical' ) ;
#275 = CIRCLE ( 'NONE', #136, 1.250000000000000000 ) ;
#276 = EDGE_CURVE ( 'NONE', #201, #180, #280, .T. ) ;
#277 = DIRECTION ( 'NONE',  ( -0.000000000000000000, -0.000000000000000000, -1.000000000000000000 ) ) ;
#278 = ORIENTED_EDGE ( 'NONE', *, *, #300, .T. ) ;
#279 = DIRECTION ( 'NONE',  ( -0.000000000000000000, -0.000000000000000000, -1.000000000000000000 ) ) ;
#280 = CIRCLE ( 'NONE', #59, 1.250000000000000000 ) ;
#281 = CC_DESIGN_APPROVAL ( #24, ( #200 ) ) ;
#282 = EDGE_CURVE ( 'NONE', #78, #195, #92, .T. ) ;
#283 = DIRECTION ( 'NONE',  ( 0.000000000000000000, 0.000000000000000000, 1.000000000000000000 ) ) ;
#284 = CARTESIAN_POINT ( 'NONE',  ( 0.000000000000000000, 0.000000000000000000, 1.399999999999998579 ) ) ;
#285 = AXIS2_PLACEMENT_3D ( 'NONE', #304, #157, #44 ) ;
#286 = DIRECTION ( 'NONE',  ( -1.000000000000000000, 0.000000000000000000, 0.000000000000000000 ) ) ;
#287 = LOCAL_TIME ( 12, 30, 1.000000000000000000, #146 ) ;
#288 = CARTESIAN_POINT ( 'NONE',  ( -1.250000000000000000, 0.000000000000000000, 1.199999999999999956 ) ) ;
#289 = EDGE_CURVE ( 'NONE', #172, #121, #239, .T. ) ;
#290 = FACE_OUTER_BOUND ( 'NONE', #62, .T. ) ;
#291 = PERSON_AND_ORGANIZATION_ROLE ( 'design_supplier' ) ;
#292 = PERSON_AND_ORGANIZATION_ROLE ( 'creator' ) ;
#293 = ORIENTED_EDGE ( 'NONE', *, *, #224, .F. ) ;
#294 = CALENDAR_DATE ( 2022, 20, 6 ) ;
#295 = APPLICATION_CONTEXT ( 'configuration controlled 3d designs of mechanical parts and assemblies' ) ;
#296 = PERSON_AND_ORGANIZATION ( #210, #100 ) ;
#297 =( NAMED_UNIT ( * ) SI_UNIT ( $, .STERADIAN. ) SOLID_ANGLE_UNIT ( ) );
#298 = CC_DESIGN_APPROVAL ( #183, ( #94 ) ) ;
#299 = CALENDAR_DATE ( 2022, 20, 6 ) ;
#300 = EDGE_CURVE ( 'NONE', #257, #172, #67, .T. ) ;
#301 = CARTESIAN_POINT ( 'NONE',  ( 0.5000000000000000000, 6.123233995736766036E-17, 1.399999999999998579 ) ) ;
#302 = DATE_AND_TIME ( #250, #256 ) ;
#303 = SHAPE_DEFINITION_REPRESENTATION ( #227, #175 ) ;
#304 = CARTESIAN_POINT ( 'NONE',  ( 0.000000000000000000, 0.000000000000000000, 101.2000000000000171 ) ) ;
#305 = FACE_BOUND ( 'NONE', #268, .T. ) ;
#306 = MANIFOLD_SOLID_BREP ( 'Zaoblit1', #212 ) ;
#307 = LINE ( 'NONE', #251, #12 ) ;
ENDSEC;
END-ISO-10303-21;
