ISO-10303-21;
HEADER;
FILE_DESCRIPTION (( 'STEP AP203' ),
    '1' );
FILE_NAME ('7f58.STEP',
    '2022-06-20T09:40:11',
    ( '' ),
    ( '' ),
    'SwSTEP 2.0',
    'SolidWorks 2019',
    '' );
FILE_SCHEMA (( 'CONFIG_CONTROL_DESIGN' ));
ENDSEC;

DATA;
#1 = ORIENTED_EDGE ( 'NONE', *, *, #246, .F. ) ;
#2 = AXIS2_PLACEMENT_3D ( 'NONE', #181, #220, #105 ) ;
#3 = FACE_OUTER_BOUND ( 'NONE', #41, .T. ) ;
#4 = CARTESIAN_POINT ( 'NONE',  ( 0.000000000000000000, 0.000000000000000000, 5.199999999999982414 ) ) ;
#5 = TOROIDAL_SURFACE ( 'NONE', #254, 5.200000000000001066, 0.2000000000000000111 ) ;
#6 = DIRECTION ( 'NONE',  ( -0.000000000000000000, -0.000000000000000000, -1.000000000000000000 ) ) ;
#7 = LOCAL_TIME ( 11, 40, 11.00000000000000000, #251 ) ;
#8 = ORIENTED_EDGE ( 'NONE', *, *, #46, .F. ) ;
#9 = CARTESIAN_POINT ( 'NONE',  ( 5.200000000000001066, 0.000000000000000000, 5.199999999999982414 ) ) ;
#10 = EDGE_LOOP ( 'NONE', ( #125, #86 ) ) ;
#11 =( NAMED_UNIT ( * ) PLANE_ANGLE_UNIT ( ) SI_UNIT ( $, .RADIAN. ) );
#12 = EDGE_CURVE ( 'NONE', #199, #218, #44, .T. ) ;
#13 = ORIENTED_EDGE ( 'NONE', *, *, #167, .T. ) ;
#14 = AXIS2_PLACEMENT_3D ( 'NONE', #217, #288, #169 ) ;
#15 = ORIENTED_EDGE ( 'NONE', *, *, #137, .T. ) ;
#16 =( NAMED_UNIT ( * ) SI_UNIT ( $, .STERADIAN. ) SOLID_ANGLE_UNIT ( ) );
#17 = DIRECTION ( 'NONE',  ( 1.000000000000000000, 0.000000000000000000, 0.000000000000000000 ) ) ;
#18 = CC_DESIGN_PERSON_AND_ORGANIZATION_ASSIGNMENT ( #88, #205, ( #48 ) ) ;
#19 = DIRECTION ( 'NONE',  ( 1.000000000000000000, 0.000000000000000000, 0.000000000000000000 ) ) ;
#20 = PERSON_AND_ORGANIZATION ( #143, #23 ) ;
#21 = AXIS2_PLACEMENT_3D ( 'NONE', #113, #302, #184 ) ;
#22 = DIRECTION ( 'NONE',  ( 1.000000000000000000, 0.000000000000000000, -0.000000000000000000 ) ) ;
#23 = ORGANIZATION ( 'NEURÈENÝ', 'NEURÈENÝ', '' ) ;
#24 = CARTESIAN_POINT ( 'NONE',  ( 0.000000000000000000, 0.000000000000000000, 0.000000000000000000 ) ) ;
#25 = CIRCLE ( 'NONE', #261, 8.000000000000000000 ) ;
#26 = CARTESIAN_POINT ( 'NONE',  ( 5.200000000000001066, 0.000000000000000000, 4.999999999999991118 ) ) ;
#27 = CC_DESIGN_DATE_AND_TIME_ASSIGNMENT ( #206, #136, ( #45 ) ) ;
#28 = DIRECTION ( 'NONE',  ( 0.000000000000000000, 0.000000000000000000, 1.000000000000000000 ) ) ;
#29 = DIRECTION ( 'NONE',  ( -1.000000000000000000, 0.000000000000000000, 0.000000000000000000 ) ) ;
#30 = ORIENTED_EDGE ( 'NONE', *, *, #74, .T. ) ;
#31 = DIRECTION ( 'NONE',  ( 0.000000000000000000, 0.000000000000000000, 1.000000000000000000 ) ) ;
#32 = CC_DESIGN_SECURITY_CLASSIFICATION ( #45, ( #48 ) ) ;
#33 = ORIENTED_EDGE ( 'NONE', *, *, #284, .F. ) ;
#34 = EDGE_CURVE ( 'NONE', #149, #142, #236, .T. ) ;
#35 = FACE_OUTER_BOUND ( 'NONE', #36, .T. ) ;
#36 = EDGE_LOOP ( 'NONE', ( #37, #50, #128, #100 ) ) ;
#37 = ORIENTED_EDGE ( 'NONE', *, *, #167, .F. ) ;
#38 = CALENDAR_DATE ( 2022, 20, 6 ) ;
#39 = EDGE_LOOP ( 'NONE', ( #192, #13, #157, #85 ) ) ;
#40 = PERSON_AND_ORGANIZATION ( #143, #23 ) ;
#41 = EDGE_LOOP ( 'NONE', ( #170, #82, #62, #15 ) ) ;
#42 = FACE_OUTER_BOUND ( 'NONE', #296, .T. ) ;
#43 = CALENDAR_DATE ( 2022, 20, 6 ) ;
#44 = CIRCLE ( 'NONE', #2, 5.000000000000000888 ) ;
#45 = SECURITY_CLASSIFICATION ( '', '', #301 ) ;
#46 = EDGE_CURVE ( 'NONE', #235, #149, #92, .T. ) ;
#47 = AXIS2_PLACEMENT_3D ( 'NONE', #179, #291, #133 ) ;
#48 = PRODUCT_DEFINITION_FORMATION_WITH_SPECIFIED_SOURCE ( 'LIBOVOLNÝ', '', #73, .NOT_KNOWN. ) ;
#49 = COORDINATED_UNIVERSAL_TIME_OFFSET ( 1, 0, .AHEAD. ) ;
#50 = ORIENTED_EDGE ( 'NONE', *, *, #12, .F. ) ;
#51 = DIRECTION ( 'NONE',  ( 0.000000000000000000, 0.000000000000000000, 1.000000000000000000 ) ) ;
#52 = CARTESIAN_POINT ( 'NONE',  ( -5.000000000000000888, 0.000000000000000000, 1004.999999999999886 ) ) ;
#53 = ORIENTED_EDGE ( 'NONE', *, *, #34, .T. ) ;
#54 = DIRECTION ( 'NONE',  ( -0.000000000000000000, -0.000000000000000000, -1.000000000000000000 ) ) ;
#55 = EDGE_CURVE ( 'NONE', #218, #199, #208, .T. ) ;
#56 = ORIENTED_EDGE ( 'NONE', *, *, #34, .F. ) ;
#57 = CIRCLE ( 'NONE', #190, 5.000000000000000888 ) ;
#58 = CARTESIAN_POINT ( 'NONE',  ( 8.000000000000000000, 9.797174393178825657E-16, 0.000000000000000000 ) ) ;
#59 = AXIS2_PLACEMENT_3D ( 'NONE', #188, #6, #116 ) ;
#60 = DIRECTION ( 'NONE',  ( 1.000000000000000000, 0.000000000000000000, 0.000000000000000000 ) ) ;
#61 = FACE_BOUND ( 'NONE', #129, .T. ) ;
#62 = ORIENTED_EDGE ( 'NONE', *, *, #147, .T. ) ;
#63 = DIRECTION ( 'NONE',  ( 0.000000000000000000, 0.000000000000000000, 1.000000000000000000 ) ) ;
#64 = APPLICATION_CONTEXT ( 'configuration controlled 3d designs of mechanical parts and assemblies' ) ;
#65 = APPLICATION_PROTOCOL_DEFINITION ( 'international standard', 'config_control_design', 1994, #145 ) ;
#66 = AXIS2_PLACEMENT_3D ( 'NONE', #120, #194, #76 ) ;
#67 = LOCAL_TIME ( 11, 40, 11.00000000000000000, #162 ) ;
#68 = LINE ( 'NONE', #107, #300 ) ;
#69 = CARTESIAN_POINT ( 'NONE',  ( 0.000000000000000000, 0.000000000000000000, 0.000000000000000000 ) ) ;
#70 = LINE ( 'NONE', #263, #122 ) ;
#71 = EDGE_CURVE ( 'NONE', #199, #149, #68, .T. ) ;
#72 = CALENDAR_DATE ( 2022, 20, 6 ) ;
#73 = PRODUCT ( '7f58', '7f58', '', ( #247 ) ) ;
#74 = EDGE_CURVE ( 'NONE', #168, #276, #252, .T. ) ;
#75 = AXIS2_PLACEMENT_3D ( 'NONE', #151, #243, #164 ) ;
#76 = DIRECTION ( 'NONE',  ( -1.000000000000000000, 0.000000000000000000, 0.000000000000000000 ) ) ;
#77 = CARTESIAN_POINT ( 'NONE',  ( 5.000000000000000888, 6.123233995736767268E-16, 5.199999999999982414 ) ) ;
#78 = CYLINDRICAL_SURFACE ( 'NONE', #66, 5.000000000000000888 ) ;
#79 = CC_DESIGN_PERSON_AND_ORGANIZATION_ASSIGNMENT ( #108, #299, ( #48 ) ) ;
#80 = DIRECTION ( 'NONE',  ( -0.000000000000000000, -0.000000000000000000, -1.000000000000000000 ) ) ;
#81 = CARTESIAN_POINT ( 'NONE',  ( 0.000000000000000000, 0.000000000000000000, 5.199999999999982414 ) ) ;
#82 = ORIENTED_EDGE ( 'NONE', *, *, #268, .F. ) ;
#83 = AXIS2_PLACEMENT_3D ( 'NONE', #140, #203, #255 ) ;
#84 = LINE ( 'NONE', #290, #275 ) ;
#85 = ORIENTED_EDGE ( 'NONE', *, *, #71, .F. ) ;
#86 = ORIENTED_EDGE ( 'NONE', *, *, #109, .F. ) ;
#87 = CARTESIAN_POINT ( 'NONE',  ( 8.000000000000000000, 9.797174393178825657E-16, 5.000000000000000000 ) ) ;
#88 = PERSON_AND_ORGANIZATION ( #143, #23 ) ;
#89 = PERSON_AND_ORGANIZATION ( #143, #23 ) ;
#90 = DATE_AND_TIME ( #72, #7 ) ;
#91 = CALENDAR_DATE ( 2022, 20, 6 ) ;
#92 = CIRCLE ( 'NONE', #241, 5.000000000000000888 ) ;
#93 = EDGE_CURVE ( 'NONE', #142, #297, #144, .T. ) ;
#94 = DIRECTION ( 'NONE',  ( 1.000000000000000000, 0.000000000000000000, 0.000000000000000000 ) ) ;
#95 = PRODUCT_DEFINITION_SHAPE ( 'NONE', 'NONE',  #126 ) ;
#96 = CIRCLE ( 'NONE', #266, 0.1999999999999996503 ) ;
#97 = PLANE ( 'NONE',  #165 ) ;
#98 = ADVANCED_FACE ( 'NONE', ( #172 ), #264, .T. ) ;
#99 = PLANE ( 'NONE',  #14 ) ;
#100 = ORIENTED_EDGE ( 'NONE', *, *, #207, .T. ) ;
#101 = CYLINDRICAL_SURFACE ( 'NONE', #228, 5.000000000000000888 ) ;
#102 = ORIENTED_EDGE ( 'NONE', *, *, #284, .T. ) ;
#103 = ORIENTED_EDGE ( 'NONE', *, *, #93, .F. ) ;
#104 = DIRECTION ( 'NONE',  ( 0.000000000000000000, 0.000000000000000000, 1.000000000000000000 ) ) ;
#105 = DIRECTION ( 'NONE',  ( 1.000000000000000000, 0.000000000000000000, 0.000000000000000000 ) ) ;
#106 = PERSON_AND_ORGANIZATION ( #143, #23 ) ;
#107 = CARTESIAN_POINT ( 'NONE',  ( -5.000000000000000888, 0.000000000000000000, 1004.999999999999886 ) ) ;
#108 = PERSON_AND_ORGANIZATION ( #143, #23 ) ;
#109 = EDGE_CURVE ( 'NONE', #276, #193, #211, .T. ) ;
#110 = APPROVAL_STATUS ( 'not_yet_approved' ) ;
#111 = APPROVAL_DATE_TIME ( #274, #216 ) ;
#112 = AXIS2_PLACEMENT_3D ( 'NONE', #69, #104, #248 ) ;
#113 = CARTESIAN_POINT ( 'NONE',  ( 0.000000000000000000, 0.000000000000000000, 0.000000000000000000 ) ) ;
#114 = PERSON_AND_ORGANIZATION ( #143, #23 ) ;
#115 = CLOSED_SHELL ( 'NONE', ( #180, #239, #98, #304, #231, #119, #253, #160, #117 ) ) ;
#116 = DIRECTION ( 'NONE',  ( -1.000000000000000000, 0.000000000000000000, 0.000000000000000000 ) ) ;
#117 = ADVANCED_FACE ( 'NONE', ( #42 ), #5, .F. ) ;
#118 = MANIFOLD_SOLID_BREP ( 'Zaoblit1', #115 ) ;
#119 = ADVANCED_FACE ( 'NONE', ( #163 ), #232, .F. ) ;
#120 = CARTESIAN_POINT ( 'NONE',  ( 0.000000000000000000, 0.000000000000000000, 1004.999999999999886 ) ) ;
#121 = ORIENTED_EDGE ( 'NONE', *, *, #268, .T. ) ;
#122 = VECTOR ( 'NONE', #265, 1000.000000000000000 ) ;
#123 = APPROVAL_PERSON_ORGANIZATION ( #20, #298, #224 ) ;
#124 = CARTESIAN_POINT ( 'NONE',  ( 0.000000000000000000, 0.000000000000000000, 5.000000000000000000 ) ) ;
#125 = ORIENTED_EDGE ( 'NONE', *, *, #137, .F. ) ;
#126 = PRODUCT_DEFINITION ( 'NEZNÁMÝ', '', #48, #141 ) ;
#127 = DIRECTION ( 'NONE',  ( 1.000000000000000000, 0.000000000000000000, 0.000000000000000000 ) ) ;
#128 = ORIENTED_EDGE ( 'NONE', *, *, #71, .T. ) ;
#129 = EDGE_LOOP ( 'NONE', ( #102, #195 ) ) ;
#130 = COORDINATED_UNIVERSAL_TIME_OFFSET ( 1, 0, .AHEAD. ) ;
#131 = EDGE_LOOP ( 'NONE', ( #121, #270 ) ) ;
#132 = APPROVAL_STATUS ( 'not_yet_approved' ) ;
#133 = DIRECTION ( 'NONE',  ( -1.000000000000000000, 1.224646799147353454E-16, 0.000000000000000000 ) ) ;
#134 = EDGE_CURVE ( 'NONE', #168, #178, #25, .T. ) ;
#135 = DIRECTION ( 'NONE',  ( 0.000000000000000000, 0.000000000000000000, 1.000000000000000000 ) ) ;
#136 = DATE_TIME_ROLE ( 'classification_date' ) ;
#137 = EDGE_CURVE ( 'NONE', #193, #276, #257, .T. ) ;
#138 = CIRCLE ( 'NONE', #139, 5.200000000000001066 ) ;
#139 = AXIS2_PLACEMENT_3D ( 'NONE', #244, #237, #127 ) ;
#140 = CARTESIAN_POINT ( 'NONE',  ( 0.000000000000000000, 0.000000000000000000, 0.000000000000000000 ) ) ;
#141 = DESIGN_CONTEXT ( 'detailed design', #145, 'design' ) ;
#142 = VERTEX_POINT ( 'NONE', #280 ) ;
#143 = PERSON ( 'NEURÈENÝ', 'NEURÈENÝ', 'NEURÈENÝ', ('NEURÈENÝ'), ('NEURÈENÝ'), ('NEURÈENÝ') ) ;
#144 = CIRCLE ( 'NONE', #204, 5.200000000000001066 ) ;
#145 = APPLICATION_CONTEXT ( 'configuration controlled 3d designs of mechanical parts and assemblies' ) ;
#146 = CARTESIAN_POINT ( 'NONE',  ( -5.000000000000000888, 0.000000000000000000, 5.199999999999982414 ) ) ;
#147 = EDGE_CURVE ( 'NONE', #178, #193, #70, .T. ) ;
#148 = DIRECTION ( 'NONE',  ( 0.000000000000000000, -1.000000000000000000, 0.000000000000000000 ) ) ;
#149 = VERTEX_POINT ( 'NONE', #146 ) ;
#150 = CARTESIAN_POINT ( 'NONE',  ( 0.000000000000000000, 0.000000000000000000, 1004.999999999999886 ) ) ;
#151 = CARTESIAN_POINT ( 'NONE',  ( 0.000000000000000000, 0.000000000000000000, 5.000000000000000000 ) ) ;
#152 = AXIS2_PLACEMENT_3D ( 'NONE', #24, #135, #22 ) ;
#153 = APPROVAL_PERSON_ORGANIZATION ( #114, #216, #305 ) ;
#154 = FACE_OUTER_BOUND ( 'NONE', #197, .T. ) ;
#155 = DIRECTION ( 'NONE',  ( -0.000000000000000000, -0.000000000000000000, -1.000000000000000000 ) ) ;
#156 = CARTESIAN_POINT ( 'NONE',  ( 0.000000000000000000, 0.000000000000000000, 5.000000000000000000 ) ) ;
#157 = ORIENTED_EDGE ( 'NONE', *, *, #46, .T. ) ;
#158 = APPROVAL_DATE_TIME ( #90, #187 ) ;
#159 = ORIENTED_EDGE ( 'NONE', *, *, #207, .F. ) ;
#160 = ADVANCED_FACE ( 'NONE', ( #154 ), #99, .T. ) ;
#161 = CARTESIAN_POINT ( 'NONE',  ( 0.000000000000000000, 0.000000000000000000, 5.000000000000000000 ) ) ;
#162 = COORDINATED_UNIVERSAL_TIME_OFFSET ( 1, 0, .AHEAD. ) ;
#163 = FACE_OUTER_BOUND ( 'NONE', #10, .T. ) ;
#164 = DIRECTION ( 'NONE',  ( -1.000000000000000000, 0.000000000000000000, 0.000000000000000000 ) ) ;
#165 = AXIS2_PLACEMENT_3D ( 'NONE', #124, #171, #189 ) ;
#166 = APPROVAL_PERSON_ORGANIZATION ( #106, #187, #271 ) ;
#167 = EDGE_CURVE ( 'NONE', #218, #235, #84, .T. ) ;
#168 = VERTEX_POINT ( 'NONE', #262 ) ;
#169 = DIRECTION ( 'NONE',  ( 1.000000000000000000, 0.000000000000000000, -0.000000000000000000 ) ) ;
#170 = ORIENTED_EDGE ( 'NONE', *, *, #74, .F. ) ;
#171 = DIRECTION ( 'NONE',  ( 0.000000000000000000, 0.000000000000000000, 1.000000000000000000 ) ) ;
#172 = FACE_OUTER_BOUND ( 'NONE', #201, .T. ) ;
#173 = DIRECTION ( 'NONE',  ( 1.000000000000000000, 0.000000000000000000, 0.000000000000000000 ) ) ;
#174 = CC_DESIGN_PERSON_AND_ORGANIZATION_ASSIGNMENT ( #89, #279, ( #45 ) ) ;
#175 = CARTESIAN_POINT ( 'NONE',  ( 0.000000000000000000, 0.000000000000000000, 5.199999999999982414 ) ) ;
#176 = CC_DESIGN_APPROVAL ( #298, ( #48 ) ) ;
#177 = DIRECTION ( 'NONE',  ( 1.000000000000000000, 0.000000000000000000, 0.000000000000000000 ) ) ;
#178 = VERTEX_POINT ( 'NONE', #238 ) ;
#179 = CARTESIAN_POINT ( 'NONE',  ( -5.200000000000001066, 6.368163355566237368E-16, 5.199999999999982414 ) ) ;
#180 = ADVANCED_FACE ( 'NONE', ( #196 ), #250, .F. ) ;
#181 = CARTESIAN_POINT ( 'NONE',  ( 0.000000000000000000, 0.000000000000000000, 1004.999999999999886 ) ) ;
#182 = LOCAL_TIME ( 11, 40, 11.00000000000000000, #277 ) ;
#183 = PERSON_AND_ORGANIZATION ( #143, #23 ) ;
#184 = DIRECTION ( 'NONE',  ( 1.000000000000000000, 0.000000000000000000, 0.000000000000000000 ) ) ;
#185 = DATE_AND_TIME ( #295, #215 ) ;
#186 = DIRECTION ( 'NONE',  ( 0.000000000000000000, 0.000000000000000000, 1.000000000000000000 ) ) ;
#187 = APPROVAL ( #132, 'NEURÈENÝ' ) ;
#188 = CARTESIAN_POINT ( 'NONE',  ( 0.000000000000000000, 0.000000000000000000, 5.000000000000000000 ) ) ;
#189 = DIRECTION ( 'NONE',  ( 1.000000000000000000, 0.000000000000000000, -0.000000000000000000 ) ) ;
#190 = AXIS2_PLACEMENT_3D ( 'NONE', #4, #28, #269 ) ;
#191 = CIRCLE ( 'NONE', #233, 8.000000000000000000 ) ;
#192 = ORIENTED_EDGE ( 'NONE', *, *, #55, .F. ) ;
#193 = VERTEX_POINT ( 'NONE', #213 ) ;
#194 = DIRECTION ( 'NONE',  ( -0.000000000000000000, -0.000000000000000000, -1.000000000000000000 ) ) ;
#195 = ORIENTED_EDGE ( 'NONE', *, *, #93, .T. ) ;
#196 = FACE_OUTER_BOUND ( 'NONE', #249, .T. ) ;
#197 = EDGE_LOOP ( 'NONE', ( #289, #259 ) ) ;
#198 = PERSON_AND_ORGANIZATION_ROLE ( 'design_owner' ) ;
#199 = VERTEX_POINT ( 'NONE', #52 ) ;
#200 = CC_DESIGN_PERSON_AND_ORGANIZATION_ASSIGNMENT ( #183, #198, ( #73 ) ) ;
#201 = EDGE_LOOP ( 'NONE', ( #245, #30, #223, #294 ) ) ;
#202 = DATE_TIME_ROLE ( 'creation_date' ) ;
#203 = DIRECTION ( 'NONE',  ( 0.000000000000000000, 0.000000000000000000, 1.000000000000000000 ) ) ;
#204 = AXIS2_PLACEMENT_3D ( 'NONE', #161, #225, #19 ) ;
#205 = PERSON_AND_ORGANIZATION_ROLE ( 'design_supplier' ) ;
#206 = DATE_AND_TIME ( #43, #67 ) ;
#207 = EDGE_CURVE ( 'NONE', #149, #235, #57, .T. ) ;
#208 = CIRCLE ( 'NONE', #282, 5.000000000000000888 ) ;
#209 = CARTESIAN_POINT ( 'NONE',  ( 0.000000000000000000, 0.000000000000000000, 5.000000000000000000 ) ) ;
#210 = ADVANCED_BREP_SHAPE_REPRESENTATION ( '7f58', ( #118, #112 ), #283 ) ;
#211 = CIRCLE ( 'NONE', #83, 8.000000000000000000 ) ;
#212 = CYLINDRICAL_SURFACE ( 'NONE', #59, 8.000000000000000000 ) ;
#213 = CARTESIAN_POINT ( 'NONE',  ( -8.000000000000000000, 0.000000000000000000, 0.000000000000000000 ) ) ;
#214 = CARTESIAN_POINT ( 'NONE',  ( 5.000000000000000888, 6.123233995736767268E-16, 1004.999999999999886 ) ) ;
#215 = LOCAL_TIME ( 11, 40, 11.00000000000000000, #130 ) ;
#216 = APPROVAL ( #303, 'NEURÈENÝ' ) ;
#217 = CARTESIAN_POINT ( 'NONE',  ( 0.000000000000000000, 0.000000000000000000, 1004.999999999999886 ) ) ;
#218 = VERTEX_POINT ( 'NONE', #214 ) ;
#219 = ORIENTED_EDGE ( 'NONE', *, *, #246, .T. ) ;
#220 = DIRECTION ( 'NONE',  ( 0.000000000000000000, 0.000000000000000000, 1.000000000000000000 ) ) ;
#221 = APPROVAL_DATE_TIME ( #185, #298 ) ;
#222 = SHAPE_DEFINITION_REPRESENTATION ( #95, #210 ) ;
#223 = ORIENTED_EDGE ( 'NONE', *, *, #109, .T. ) ;
#224 = APPROVAL_ROLE ( '' ) ;
#225 = DIRECTION ( 'NONE',  ( -0.000000000000000000, -0.000000000000000000, -1.000000000000000000 ) ) ;
#226 = DATE_AND_TIME ( #38, #182 ) ;
#227 = CARTESIAN_POINT ( 'NONE',  ( 0.000000000000000000, 0.000000000000000000, 5.199999999999982414 ) ) ;
#228 = AXIS2_PLACEMENT_3D ( 'NONE', #150, #292, #29 ) ;
#229 = CC_DESIGN_DATE_AND_TIME_ASSIGNMENT ( #226, #202, ( #126 ) ) ;
#230 = PERSON_AND_ORGANIZATION_ROLE ( 'creator' ) ;
#231 = ADVANCED_FACE ( 'NONE', ( #61, #286 ), #97, .T. ) ;
#232 = PLANE ( 'NONE',  #152 ) ;
#233 = AXIS2_PLACEMENT_3D ( 'NONE', #156, #51, #173 ) ;
#234 = LOCAL_TIME ( 11, 40, 11.00000000000000000, #49 ) ;
#235 = VERTEX_POINT ( 'NONE', #77 ) ;
#236 = CIRCLE ( 'NONE', #47, 0.1999999999999996503 ) ;
#237 = DIRECTION ( 'NONE',  ( -0.000000000000000000, -0.000000000000000000, -1.000000000000000000 ) ) ;
#238 = CARTESIAN_POINT ( 'NONE',  ( -8.000000000000000000, 0.000000000000000000, 5.000000000000000000 ) ) ;
#239 = ADVANCED_FACE ( 'NONE', ( #240 ), #101, .T. ) ;
#240 = FACE_OUTER_BOUND ( 'NONE', #39, .T. ) ;
#241 = AXIS2_PLACEMENT_3D ( 'NONE', #175, #272, #60 ) ;
#242 = CC_DESIGN_APPROVAL ( #216, ( #45 ) ) ;
#243 = DIRECTION ( 'NONE',  ( -0.000000000000000000, -0.000000000000000000, -1.000000000000000000 ) ) ;
#244 = CARTESIAN_POINT ( 'NONE',  ( 0.000000000000000000, 0.000000000000000000, 5.000000000000000000 ) ) ;
#245 = ORIENTED_EDGE ( 'NONE', *, *, #134, .F. ) ;
#246 = EDGE_CURVE ( 'NONE', #235, #297, #96, .T. ) ;
#247 = MECHANICAL_CONTEXT ( 'NONE', #64, 'mechanical' ) ;
#248 = DIRECTION ( 'NONE',  ( 1.000000000000000000, 0.000000000000000000, 0.000000000000000000 ) ) ;
#249 = EDGE_LOOP ( 'NONE', ( #159, #53, #33, #1 ) ) ;
#250 = TOROIDAL_SURFACE ( 'NONE', #287, 5.200000000000001066, 0.2000000000000000111 ) ;
#251 = COORDINATED_UNIVERSAL_TIME_OFFSET ( 1, 0, .AHEAD. ) ;
#252 = LINE ( 'NONE', #87, #293 ) ;
#253 = ADVANCED_FACE ( 'NONE', ( #35 ), #78, .T. ) ;
#254 = AXIS2_PLACEMENT_3D ( 'NONE', #227, #186, #281 ) ;
#255 = DIRECTION ( 'NONE',  ( 1.000000000000000000, 0.000000000000000000, 0.000000000000000000 ) ) ;
#256 = UNCERTAINTY_MEASURE_WITH_UNIT (LENGTH_MEASURE( 1.000000000000000082E-05 ), #285, 'distance_accuracy_value', 'NONE');
#257 = CIRCLE ( 'NONE', #21, 8.000000000000000000 ) ;
#258 = CC_DESIGN_APPROVAL ( #187, ( #126 ) ) ;
#259 = ORIENTED_EDGE ( 'NONE', *, *, #55, .T. ) ;
#260 = DIRECTION ( 'NONE',  ( 0.000000000000000000, 0.000000000000000000, -1.000000000000000000 ) ) ;
#261 = AXIS2_PLACEMENT_3D ( 'NONE', #209, #306, #94 ) ;
#262 = CARTESIAN_POINT ( 'NONE',  ( 8.000000000000000000, 9.797174393178825657E-16, 5.000000000000000000 ) ) ;
#263 = CARTESIAN_POINT ( 'NONE',  ( -8.000000000000000000, 0.000000000000000000, 5.000000000000000000 ) ) ;
#264 = CYLINDRICAL_SURFACE ( 'NONE', #75, 8.000000000000000000 ) ;
#265 = DIRECTION ( 'NONE',  ( -0.000000000000000000, -0.000000000000000000, -1.000000000000000000 ) ) ;
#266 = AXIS2_PLACEMENT_3D ( 'NONE', #9, #148, #260 ) ;
#267 = CARTESIAN_POINT ( 'NONE',  ( 0.000000000000000000, 0.000000000000000000, 1004.999999999999886 ) ) ;
#268 = EDGE_CURVE ( 'NONE', #178, #168, #191, .T. ) ;
#269 = DIRECTION ( 'NONE',  ( 1.000000000000000000, 0.000000000000000000, 0.000000000000000000 ) ) ;
#270 = ORIENTED_EDGE ( 'NONE', *, *, #134, .T. ) ;
#271 = APPROVAL_ROLE ( '' ) ;
#272 = DIRECTION ( 'NONE',  ( 0.000000000000000000, 0.000000000000000000, 1.000000000000000000 ) ) ;
#273 = APPLICATION_PROTOCOL_DEFINITION ( 'international standard', 'config_control_design', 1994, #64 ) ;
#274 = DATE_AND_TIME ( #91, #234 ) ;
#275 = VECTOR ( 'NONE', #54, 1000.000000000000000 ) ;
#276 = VERTEX_POINT ( 'NONE', #58 ) ;
#277 = COORDINATED_UNIVERSAL_TIME_OFFSET ( 1, 0, .AHEAD. ) ;
#278 = PRODUCT_RELATED_PRODUCT_CATEGORY ( 'detail', '', ( #73 ) ) ;
#279 = PERSON_AND_ORGANIZATION_ROLE ( 'classification_officer' ) ;
#280 = CARTESIAN_POINT ( 'NONE',  ( -5.200000000000001066, 6.368163355566237368E-16, 4.999999999999991118 ) ) ;
#281 = DIRECTION ( 'NONE',  ( 1.000000000000000000, 0.000000000000000000, 0.000000000000000000 ) ) ;
#282 = AXIS2_PLACEMENT_3D ( 'NONE', #267, #63, #17 ) ;
#283 =( GEOMETRIC_REPRESENTATION_CONTEXT ( 3 ) GLOBAL_UNCERTAINTY_ASSIGNED_CONTEXT ( ( #256 ) ) GLOBAL_UNIT_ASSIGNED_CONTEXT ( ( #285, #11, #16 ) ) REPRESENTATION_CONTEXT ( 'NONE', 'WORKASPACE' ) );
#284 = EDGE_CURVE ( 'NONE', #297, #142, #138, .T. ) ;
#285 =( LENGTH_UNIT ( ) NAMED_UNIT ( * ) SI_UNIT ( .MILLI., .METRE. ) );
#286 = FACE_OUTER_BOUND ( 'NONE', #131, .T. ) ;
#287 = AXIS2_PLACEMENT_3D ( 'NONE', #81, #31, #177 ) ;
#288 = DIRECTION ( 'NONE',  ( 0.000000000000000000, 0.000000000000000000, 1.000000000000000000 ) ) ;
#289 = ORIENTED_EDGE ( 'NONE', *, *, #12, .T. ) ;
#290 = CARTESIAN_POINT ( 'NONE',  ( 5.000000000000000888, 6.123233995736767268E-16, 1004.999999999999886 ) ) ;
#291 = DIRECTION ( 'NONE',  ( 1.224646799147353207E-16, 1.000000000000000000, -0.000000000000000000 ) ) ;
#292 = DIRECTION ( 'NONE',  ( -0.000000000000000000, -0.000000000000000000, -1.000000000000000000 ) ) ;
#293 = VECTOR ( 'NONE', #80, 1000.000000000000000 ) ;
#294 = ORIENTED_EDGE ( 'NONE', *, *, #147, .F. ) ;
#295 = CALENDAR_DATE ( 2022, 20, 6 ) ;
#296 = EDGE_LOOP ( 'NONE', ( #56, #8, #219, #103 ) ) ;
#297 = VERTEX_POINT ( 'NONE', #26 ) ;
#298 = APPROVAL ( #110, 'NEURÈENÝ' ) ;
#299 = PERSON_AND_ORGANIZATION_ROLE ( 'creator' ) ;
#300 = VECTOR ( 'NONE', #155, 1000.000000000000000 ) ;
#301 = SECURITY_CLASSIFICATION_LEVEL ( 'unclassified' ) ;
#302 = DIRECTION ( 'NONE',  ( 0.000000000000000000, 0.000000000000000000, 1.000000000000000000 ) ) ;
#303 = APPROVAL_STATUS ( 'not_yet_approved' ) ;
#304 = ADVANCED_FACE ( 'NONE', ( #3 ), #212, .T. ) ;
#305 = APPROVAL_ROLE ( '' ) ;
#306 = DIRECTION ( 'NONE',  ( 0.000000000000000000, 0.000000000000000000, 1.000000000000000000 ) ) ;
#307 = CC_DESIGN_PERSON_AND_ORGANIZATION_ASSIGNMENT ( #40, #230, ( #126 ) ) ;
ENDSEC;
END-ISO-10303-21;
