ISO-10303-21;
HEADER;
FILE_DESCRIPTION (( 'STEP AP203' ),
    '1' );
FILE_NAME ('08fe.STEP',
    '2022-06-28T13:45:34',
    ( '' ),
    ( '' ),
    'SwSTEP 2.0',
    'SolidWorks 2019',
    '' );
FILE_SCHEMA (( 'CONFIG_CONTROL_DESIGN' ));
ENDSEC;

DATA;
#1 = EDGE_CURVE ( 'NONE', #17, #149, #65, .T. ) ;
#2 = COORDINATED_UNIVERSAL_TIME_OFFSET ( 1, 0, .AHEAD. ) ;
#3 = DIRECTION ( 'NONE',  ( -0.000000000000000000, -0.000000000000000000, -1.000000000000000000 ) ) ;
#4 = CIRCLE ( 'NONE', #16, 0.5000000000000000000 ) ;
#5 = PERSON_AND_ORGANIZATION ( #146, #56 ) ;
#6 = DIRECTION ( 'NONE',  ( 1.000000000000000000, 0.000000000000000000, 0.000000000000000000 ) ) ;
#7 = COORDINATED_UNIVERSAL_TIME_OFFSET ( 1, 0, .AHEAD. ) ;
#8 = CALENDAR_DATE ( 2022, 28, 6 ) ;
#9 = ORIENTED_EDGE ( 'NONE', *, *, #221, .F. ) ;
#10 = DIRECTION ( 'NONE',  ( 1.000000000000000000, 0.000000000000000000, 0.000000000000000000 ) ) ;
#11 = AXIS2_PLACEMENT_3D ( 'NONE', #60, #20, #183 ) ;
#12 = ORIENTED_EDGE ( 'NONE', *, *, #88, .F. ) ;
#13 = EDGE_LOOP ( 'NONE', ( #176, #81, #12, #151 ) ) ;
#14 = ADVANCED_FACE ( 'NONE', ( #198 ), #34, .T. ) ;
#15 = DIRECTION ( 'NONE',  ( -1.000000000000000000, 0.000000000000000000, 0.000000000000000000 ) ) ;
#16 = AXIS2_PLACEMENT_3D ( 'NONE', #276, #228, #306 ) ;
#17 = VERTEX_POINT ( 'NONE', #104 ) ;
#18 = CYLINDRICAL_SURFACE ( 'NONE', #195, 1.250000000000000000 ) ;
#19 = CYLINDRICAL_SURFACE ( 'NONE', #87, 1.250000000000000000 ) ;
#20 = DIRECTION ( 'NONE',  ( -0.000000000000000000, -0.000000000000000000, -1.000000000000000000 ) ) ;
#21 = PRODUCT_DEFINITION ( 'NEZNÁMÝ', '', #117, #50 ) ;
#22 = CARTESIAN_POINT ( 'NONE',  ( 0.000000000000000000, 0.000000000000000000, 0.000000000000000000 ) ) ;
#23 = DIRECTION ( 'NONE',  ( 1.000000000000000000, 0.000000000000000000, 0.000000000000000000 ) ) ;
#24 = FACE_BOUND ( 'NONE', #128, .T. ) ;
#25 = CIRCLE ( 'NONE', #214, 1.250000000000000000 ) ;
#26 = APPROVAL_STATUS ( 'not_yet_approved' ) ;
#27 = DIRECTION ( 'NONE',  ( 1.000000000000000000, 0.000000000000000000, 0.000000000000000000 ) ) ;
#28 = PERSON_AND_ORGANIZATION_ROLE ( 'design_supplier' ) ;
#29 = ADVANCED_FACE ( 'NONE', ( #113 ), #280, .T. ) ;
#30 = MECHANICAL_CONTEXT ( 'NONE', #119, 'mechanical' ) ;
#31 = EDGE_LOOP ( 'NONE', ( #222, #268 ) ) ;
#32 = DIRECTION ( 'NONE',  ( 0.000000000000000000, 0.000000000000000000, 1.000000000000000000 ) ) ;
#33 = ORIENTED_EDGE ( 'NONE', *, *, #69, .F. ) ;
#34 = CYLINDRICAL_SURFACE ( 'NONE', #241, 0.5000000000000000000 ) ;
#35 = ORIENTED_EDGE ( 'NONE', *, *, #147, .T. ) ;
#36 = PLANE ( 'NONE',  #289 ) ;
#37 = DIRECTION ( 'NONE',  ( 0.000000000000000000, 0.000000000000000000, 1.000000000000000000 ) ) ;
#38 = AXIS2_PLACEMENT_3D ( 'NONE', #253, #37, #130 ) ;
#39 = AXIS2_PLACEMENT_3D ( 'NONE', #51, #141, #246 ) ;
#40 = CARTESIAN_POINT ( 'NONE',  ( 0.000000000000000000, 0.000000000000000000, 1.199999999999999956 ) ) ;
#41 = EDGE_CURVE ( 'NONE', #149, #57, #139, .T. ) ;
#42 = CARTESIAN_POINT ( 'NONE',  ( 0.000000000000000000, 0.000000000000000000, 0.000000000000000000 ) ) ;
#43 = FACE_OUTER_BOUND ( 'NONE', #245, .T. ) ;
#44 = FACE_OUTER_BOUND ( 'NONE', #291, .T. ) ;
#45 =( NAMED_UNIT ( * ) PLANE_ANGLE_UNIT ( ) SI_UNIT ( $, .RADIAN. ) );
#46 = CALENDAR_DATE ( 2022, 28, 6 ) ;
#47 = APPROVAL_ROLE ( '' ) ;
#48 = CC_DESIGN_PERSON_AND_ORGANIZATION_ASSIGNMENT ( #72, #193, ( #117 ) ) ;
#49 = PERSON_AND_ORGANIZATION ( #146, #56 ) ;
#50 = DESIGN_CONTEXT ( 'detailed design', #248, 'design' ) ;
#51 = CARTESIAN_POINT ( 'NONE',  ( 0.000000000000000000, 0.000000000000000000, 1.400000000000012346 ) ) ;
#52 = EDGE_CURVE ( 'NONE', #149, #17, #4, .T. ) ;
#53 = VERTEX_POINT ( 'NONE', #181 ) ;
#54 = ORIENTED_EDGE ( 'NONE', *, *, #103, .F. ) ;
#55 = ORIENTED_EDGE ( 'NONE', *, *, #294, .T. ) ;
#56 = ORGANIZATION ( 'NEURÈENÝ', 'NEURÈENÝ', '' ) ;
#57 = VERTEX_POINT ( 'NONE', #275 ) ;
#58 = FACE_OUTER_BOUND ( 'NONE', #31, .T. ) ;
#59 = CARTESIAN_POINT ( 'NONE',  ( 0.000000000000000000, 0.000000000000000000, 1.199999999999999956 ) ) ;
#60 = CARTESIAN_POINT ( 'NONE',  ( 0.000000000000000000, 0.000000000000000000, 1.199999999999999956 ) ) ;
#61 = DIRECTION ( 'NONE',  ( 1.000000000000000000, 0.000000000000000000, 0.000000000000000000 ) ) ;
#62 = CARTESIAN_POINT ( 'NONE',  ( 0.6999999999999999556, 0.000000000000000000, 1.399999999999998579 ) ) ;
#63 = VECTOR ( 'NONE', #3, 1000.000000000000000 ) ;
#64 = LINE ( 'NONE', #292, #76 ) ;
#65 = CIRCLE ( 'NONE', #39, 0.5000000000000000000 ) ;
#66 = ADVANCED_BREP_SHAPE_REPRESENTATION ( '08fe', ( #299, #255 ), #239 ) ;
#67 = DATE_AND_TIME ( #46, #249 ) ;
#68 = LINE ( 'NONE', #233, #63 ) ;
#69 = EDGE_CURVE ( 'NONE', #144, #57, #194, .T. ) ;
#70 = AXIS2_PLACEMENT_3D ( 'NONE', #223, #90, #261 ) ;
#71 = AXIS2_PLACEMENT_3D ( 'NONE', #204, #301, #179 ) ;
#72 = PERSON_AND_ORGANIZATION ( #146, #56 ) ;
#73 = DATE_AND_TIME ( #160, #242 ) ;
#74 = ORIENTED_EDGE ( 'NONE', *, *, #147, .F. ) ;
#75 = ORIENTED_EDGE ( 'NONE', *, *, #52, .F. ) ;
#76 = VECTOR ( 'NONE', #158, 1000.000000000000000 ) ;
#77 = CARTESIAN_POINT ( 'NONE',  ( 0.000000000000000000, 0.000000000000000000, 0.000000000000000000 ) ) ;
#78 = ORIENTED_EDGE ( 'NONE', *, *, #109, .T. ) ;
#79 = ORIENTED_EDGE ( 'NONE', *, *, #284, .F. ) ;
#80 = CC_DESIGN_DATE_AND_TIME_ASSIGNMENT ( #95, #140, ( #277 ) ) ;
#81 = ORIENTED_EDGE ( 'NONE', *, *, #238, .T. ) ;
#82 = DIRECTION ( 'NONE',  ( 1.000000000000000000, 0.000000000000000000, 0.000000000000000000 ) ) ;
#83 = FACE_OUTER_BOUND ( 'NONE', #297, .T. ) ;
#84 = CARTESIAN_POINT ( 'NONE',  ( 0.000000000000000000, 0.000000000000000000, 91.20000000000000284 ) ) ;
#85 = DIRECTION ( 'NONE',  ( -0.000000000000000000, -0.000000000000000000, -1.000000000000000000 ) ) ;
#86 = LINE ( 'NONE', #259, #300 ) ;
#87 = AXIS2_PLACEMENT_3D ( 'NONE', #59, #153, #108 ) ;
#88 = EDGE_CURVE ( 'NONE', #57, #144, #165, .T. ) ;
#89 = CIRCLE ( 'NONE', #71, 0.5000000000000000000 ) ;
#90 = DIRECTION ( 'NONE',  ( 0.000000000000000000, 0.000000000000000000, 1.000000000000000000 ) ) ;
#91 = PERSON_AND_ORGANIZATION ( #146, #56 ) ;
#92 = FACE_OUTER_BOUND ( 'NONE', #13, .T. ) ;
#93 = CALENDAR_DATE ( 2022, 28, 6 ) ;
#94 = CC_DESIGN_APPROVAL ( #177, ( #277 ) ) ;
#95 = DATE_AND_TIME ( #8, #137 ) ;
#96 = VERTEX_POINT ( 'NONE', #302 ) ;
#97 = VECTOR ( 'NONE', #111, 1000.000000000000000 ) ;
#98 = APPLICATION_PROTOCOL_DEFINITION ( 'international standard', 'config_control_design', 1994, #248 ) ;
#99 = ORIENTED_EDGE ( 'NONE', *, *, #294, .F. ) ;
#100 = DIRECTION ( 'NONE',  ( 0.000000000000000000, 0.000000000000000000, 1.000000000000000000 ) ) ;
#101 = ORIENTED_EDGE ( 'NONE', *, *, #182, .F. ) ;
#102 = CC_DESIGN_APPROVAL ( #247, ( #21 ) ) ;
#103 = EDGE_CURVE ( 'NONE', #125, #168, #114, .T. ) ;
#104 = CARTESIAN_POINT ( 'NONE',  ( -0.5000000000000000000, 0.000000000000000000, 1.400000000000012346 ) ) ;
#105 = ORIENTED_EDGE ( 'NONE', *, *, #88, .T. ) ;
#106 = CARTESIAN_POINT ( 'NONE',  ( 0.000000000000000000, 0.000000000000000000, 1.199999999999999956 ) ) ;
#107 = CC_DESIGN_SECURITY_CLASSIFICATION ( #277, ( #117 ) ) ;
#108 = DIRECTION ( 'NONE',  ( -1.000000000000000000, 0.000000000000000000, 0.000000000000000000 ) ) ;
#109 = EDGE_CURVE ( 'NONE', #125, #17, #155, .T. ) ;
#110 = DIRECTION ( 'NONE',  ( 1.000000000000000000, 0.000000000000000000, 0.000000000000000000 ) ) ;
#111 = DIRECTION ( 'NONE',  ( -0.000000000000000000, -0.000000000000000000, -1.000000000000000000 ) ) ;
#112 = PRODUCT ( '08fe', '08fe', '', ( #30 ) ) ;
#113 = FACE_OUTER_BOUND ( 'NONE', #227, .T. ) ;
#114 = CIRCLE ( 'NONE', #173, 0.5000000000000000000 ) ;
#115 = DIRECTION ( 'NONE',  ( -1.000000000000000000, 1.224646799147352714E-16, 0.000000000000000000 ) ) ;
#116 = DIRECTION ( 'NONE',  ( 1.000000000000000000, 0.000000000000000000, 0.000000000000000000 ) ) ;
#117 = PRODUCT_DEFINITION_FORMATION_WITH_SPECIFIED_SOURCE ( 'LIBOVOLNÝ', '', #112, .NOT_KNOWN. ) ;
#118 = DIRECTION ( 'NONE',  ( 0.000000000000000000, 0.000000000000000000, 1.000000000000000000 ) ) ;
#119 = APPLICATION_CONTEXT ( 'configuration controlled 3d designs of mechanical parts and assemblies' ) ;
#120 = PERSON_AND_ORGANIZATION_ROLE ( 'creator' ) ;
#121 = ORIENTED_EDGE ( 'NONE', *, *, #207, .F. ) ;
#122 = APPROVAL_DATE_TIME ( #67, #247 ) ;
#123 = ORIENTED_EDGE ( 'NONE', *, *, #221, .T. ) ;
#124 = CARTESIAN_POINT ( 'NONE',  ( 0.000000000000000000, 0.000000000000000000, 1.199999999999999956 ) ) ;
#125 = VERTEX_POINT ( 'NONE', #303 ) ;
#126 = ADVANCED_FACE ( 'NONE', ( #83 ), #36, .F. ) ;
#127 = CARTESIAN_POINT ( 'NONE',  ( 0.000000000000000000, 0.000000000000000000, 91.20000000000000284 ) ) ;
#128 = EDGE_LOOP ( 'NONE', ( #105, #220 ) ) ;
#129 = DIRECTION ( 'NONE',  ( 0.000000000000000000, 0.000000000000000000, 1.000000000000000000 ) ) ;
#130 = DIRECTION ( 'NONE',  ( 1.000000000000000000, 0.000000000000000000, -0.000000000000000000 ) ) ;
#131 = DIRECTION ( 'NONE',  ( 1.000000000000000000, 0.000000000000000000, -0.000000000000000000 ) ) ;
#132 = CARTESIAN_POINT ( 'NONE',  ( -0.6999999999999999556, 8.572527594031473190E-17, 1.199999999999999289 ) ) ;
#133 = CC_DESIGN_DATE_AND_TIME_ASSIGNMENT ( #213, #236, ( #21 ) ) ;
#134 = DIRECTION ( 'NONE',  ( -1.000000000000000000, 0.000000000000000000, 0.000000000000000000 ) ) ;
#135 = APPROVAL_DATE_TIME ( #73, #177 ) ;
#136 = SHAPE_DEFINITION_REPRESENTATION ( #210, #66 ) ;
#137 = LOCAL_TIME ( 15, 45, 34.00000000000000000, #138 ) ;
#138 = COORDINATED_UNIVERSAL_TIME_OFFSET ( 1, 0, .AHEAD. ) ;
#139 = CIRCLE ( 'NONE', #187, 0.2000000000000000944 ) ;
#140 = DATE_TIME_ROLE ( 'classification_date' ) ;
#141 = DIRECTION ( 'NONE',  ( 0.000000000000000000, 0.000000000000000000, 1.000000000000000000 ) ) ;
#142 = FACE_OUTER_BOUND ( 'NONE', #250, .T. ) ;
#143 = CIRCLE ( 'NONE', #231, 1.250000000000000000 ) ;
#144 = VERTEX_POINT ( 'NONE', #132 ) ;
#145 = CC_DESIGN_PERSON_AND_ORGANIZATION_ASSIGNMENT ( #91, #28, ( #117 ) ) ;
#146 = PERSON ( 'NEURÈENÝ', 'NEURÈENÝ', 'NEURÈENÝ', ('NEURÈENÝ'), ('NEURÈENÝ'), ('NEURÈENÝ') ) ;
#147 = EDGE_CURVE ( 'NONE', #202, #270, #143, .T. ) ;
#148 = ORIENTED_EDGE ( 'NONE', *, *, #41, .T. ) ;
#149 = VERTEX_POINT ( 'NONE', #256 ) ;
#150 = TOROIDAL_SURFACE ( 'NONE', #200, 0.6999999999999999556, 0.2000000000000000111 ) ;
#151 = ORIENTED_EDGE ( 'NONE', *, *, #41, .F. ) ;
#152 = PLANE ( 'NONE',  #38 ) ;
#153 = DIRECTION ( 'NONE',  ( -0.000000000000000000, -0.000000000000000000, -1.000000000000000000 ) ) ;
#154 = APPROVAL_PERSON_ORGANIZATION ( #5, #247, #166 ) ;
#155 = LINE ( 'NONE', #254, #97 ) ;
#156 = ADVANCED_FACE ( 'NONE', ( #43 ), #18, .T. ) ;
#157 = DIRECTION ( 'NONE',  ( -0.000000000000000000, -0.000000000000000000, -1.000000000000000000 ) ) ;
#158 = DIRECTION ( 'NONE',  ( -0.000000000000000000, -0.000000000000000000, -1.000000000000000000 ) ) ;
#159 = LOCAL_TIME ( 15, 45, 34.00000000000000000, #237 ) ;
#160 = CALENDAR_DATE ( 2022, 28, 6 ) ;
#161 = EDGE_CURVE ( 'NONE', #168, #125, #89, .T. ) ;
#162 = PERSON_AND_ORGANIZATION ( #146, #56 ) ;
#163 = DIRECTION ( 'NONE',  ( 1.224646799147353207E-16, 1.000000000000000000, -0.000000000000000000 ) ) ;
#164 = APPROVAL_STATUS ( 'not_yet_approved' ) ;
#165 = CIRCLE ( 'NONE', #234, 0.6999999999999999556 ) ;
#166 = APPROVAL_ROLE ( '' ) ;
#167 = UNCERTAINTY_MEASURE_WITH_UNIT (LENGTH_MEASURE( 1.000000000000000082E-05 ), #258, 'distance_accuracy_value', 'NONE');
#168 = VERTEX_POINT ( 'NONE', #205 ) ;
#169 = AXIS2_PLACEMENT_3D ( 'NONE', #180, #230, #110 ) ;
#170 = ORIENTED_EDGE ( 'NONE', *, *, #52, .T. ) ;
#171 = DIRECTION ( 'NONE',  ( 0.000000000000000000, 0.000000000000000000, 1.000000000000000000 ) ) ;
#172 = ADVANCED_FACE ( 'NONE', ( #58 ), #152, .T. ) ;
#173 = AXIS2_PLACEMENT_3D ( 'NONE', #84, #211, #82 ) ;
#174 = ORIENTED_EDGE ( 'NONE', *, *, #109, .F. ) ;
#175 = ADVANCED_FACE ( 'NONE', ( #229 ), #19, .T. ) ;
#176 = ORIENTED_EDGE ( 'NONE', *, *, #1, .F. ) ;
#177 = APPROVAL ( #26, 'NEURÈENÝ' ) ;
#178 = ORIENTED_EDGE ( 'NONE', *, *, #207, .T. ) ;
#179 = DIRECTION ( 'NONE',  ( 1.000000000000000000, 0.000000000000000000, 0.000000000000000000 ) ) ;
#180 = CARTESIAN_POINT ( 'NONE',  ( 0.000000000000000000, 0.000000000000000000, 1.199999999999999956 ) ) ;
#181 = CARTESIAN_POINT ( 'NONE',  ( 1.250000000000000000, 1.530808498934191571E-16, 1.199999999999999956 ) ) ;
#182 = EDGE_CURVE ( 'NONE', #96, #53, #257, .T. ) ;
#183 = DIRECTION ( 'NONE',  ( 1.000000000000000000, 0.000000000000000000, 0.000000000000000000 ) ) ;
#184 = CARTESIAN_POINT ( 'NONE',  ( 0.000000000000000000, 0.000000000000000000, 91.20000000000000284 ) ) ;
#185 = CARTESIAN_POINT ( 'NONE',  ( 0.000000000000000000, 0.000000000000000000, 1.399999999999998579 ) ) ;
#186 = AXIS2_PLACEMENT_3D ( 'NONE', #307, #32, #27 ) ;
#187 = AXIS2_PLACEMENT_3D ( 'NONE', #62, #232, #252 ) ;
#188 =( NAMED_UNIT ( * ) SI_UNIT ( $, .STERADIAN. ) SOLID_ANGLE_UNIT ( ) );
#189 = CALENDAR_DATE ( 2022, 28, 6 ) ;
#190 = ADVANCED_FACE ( 'NONE', ( #24, #44 ), #216, .T. ) ;
#191 = COORDINATED_UNIVERSAL_TIME_OFFSET ( 1, 0, .AHEAD. ) ;
#192 = CIRCLE ( 'NONE', #273, 0.1999999999999999833 ) ;
#193 = PERSON_AND_ORGANIZATION_ROLE ( 'creator' ) ;
#194 = CIRCLE ( 'NONE', #11, 0.6999999999999999556 ) ;
#195 = AXIS2_PLACEMENT_3D ( 'NONE', #106, #85, #134 ) ;
#196 = ORIENTED_EDGE ( 'NONE', *, *, #296, .F. ) ;
#197 = PERSON_AND_ORGANIZATION_ROLE ( 'classification_officer' ) ;
#198 = FACE_OUTER_BOUND ( 'NONE', #224, .T. ) ;
#199 = CARTESIAN_POINT ( 'NONE',  ( 0.000000000000000000, 0.000000000000000000, 0.000000000000000000 ) ) ;
#200 = AXIS2_PLACEMENT_3D ( 'NONE', #185, #244, #116 ) ;
#201 = ORIENTED_EDGE ( 'NONE', *, *, #1, .T. ) ;
#202 = VERTEX_POINT ( 'NONE', #285 ) ;
#203 = ORIENTED_EDGE ( 'NONE', *, *, #296, .T. ) ;
#204 = CARTESIAN_POINT ( 'NONE',  ( 0.000000000000000000, 0.000000000000000000, 91.20000000000000284 ) ) ;
#205 = CARTESIAN_POINT ( 'NONE',  ( 0.5000000000000000000, 6.123233995736764803E-17, 91.20000000000000284 ) ) ;
#206 = DIRECTION ( 'NONE',  ( -0.000000000000000000, -0.000000000000000000, -1.000000000000000000 ) ) ;
#207 = EDGE_CURVE ( 'NONE', #270, #202, #25, .T. ) ;
#208 = AXIS2_PLACEMENT_3D ( 'NONE', #124, #118, #212 ) ;
#209 = TOROIDAL_SURFACE ( 'NONE', #186, 0.6999999999999999556, 0.2000000000000000111 ) ;
#210 = PRODUCT_DEFINITION_SHAPE ( 'NONE', 'NONE',  #21 ) ;
#211 = DIRECTION ( 'NONE',  ( 0.000000000000000000, 0.000000000000000000, 1.000000000000000000 ) ) ;
#212 = DIRECTION ( 'NONE',  ( 1.000000000000000000, 0.000000000000000000, -0.000000000000000000 ) ) ;
#213 = DATE_AND_TIME ( #93, #159 ) ;
#214 = AXIS2_PLACEMENT_3D ( 'NONE', #199, #100, #6 ) ;
#215 = CC_DESIGN_PERSON_AND_ORGANIZATION_ASSIGNMENT ( #49, #197, ( #277 ) ) ;
#216 = PLANE ( 'NONE',  #208 ) ;
#217 = PERSON_AND_ORGANIZATION ( #146, #56 ) ;
#218 = APPROVAL_DATE_TIME ( #287, #271 ) ;
#219 = PRODUCT_RELATED_PRODUCT_CATEGORY ( 'detail', '', ( #112 ) ) ;
#220 = ORIENTED_EDGE ( 'NONE', *, *, #69, .T. ) ;
#221 = EDGE_CURVE ( 'NONE', #53, #202, #68, .T. ) ;
#222 = ORIENTED_EDGE ( 'NONE', *, *, #103, .T. ) ;
#223 = CARTESIAN_POINT ( 'NONE',  ( 0.000000000000000000, 0.000000000000000000, 1.199999999999999956 ) ) ;
#224 = EDGE_LOOP ( 'NONE', ( #196, #54, #78, #201 ) ) ;
#225 = DIRECTION ( 'NONE',  ( -0.000000000000000000, -0.000000000000000000, -1.000000000000000000 ) ) ;
#226 = CC_DESIGN_PERSON_AND_ORGANIZATION_ASSIGNMENT ( #162, #120, ( #21 ) ) ;
#227 = EDGE_LOOP ( 'NONE', ( #298, #203, #170, #174 ) ) ;
#228 = DIRECTION ( 'NONE',  ( 0.000000000000000000, 0.000000000000000000, 1.000000000000000000 ) ) ;
#229 = FACE_OUTER_BOUND ( 'NONE', #295, .T. ) ;
#230 = DIRECTION ( 'NONE',  ( 0.000000000000000000, 0.000000000000000000, 1.000000000000000000 ) ) ;
#231 = AXIS2_PLACEMENT_3D ( 'NONE', #22, #278, #61 ) ;
#232 = DIRECTION ( 'NONE',  ( 0.000000000000000000, -1.000000000000000000, 0.000000000000000000 ) ) ;
#233 = CARTESIAN_POINT ( 'NONE',  ( 1.250000000000000000, 1.530808498934191571E-16, 1.199999999999999956 ) ) ;
#234 = AXIS2_PLACEMENT_3D ( 'NONE', #40, #206, #23 ) ;
#235 = CARTESIAN_POINT ( 'NONE',  ( -0.6999999999999999556, 8.572527594031471957E-17, 1.399999999999998579 ) ) ;
#236 = DATE_TIME_ROLE ( 'creation_date' ) ;
#237 = COORDINATED_UNIVERSAL_TIME_OFFSET ( 1, 0, .AHEAD. ) ;
#238 = EDGE_CURVE ( 'NONE', #17, #144, #192, .T. ) ;
#239 =( GEOMETRIC_REPRESENTATION_CONTEXT ( 3 ) GLOBAL_UNCERTAINTY_ASSIGNED_CONTEXT ( ( #167 ) ) GLOBAL_UNIT_ASSIGNED_CONTEXT ( ( #258, #45, #188 ) ) REPRESENTATION_CONTEXT ( 'NONE', 'WORKASPACE' ) );
#240 = PERSON_AND_ORGANIZATION ( #146, #56 ) ;
#241 = AXIS2_PLACEMENT_3D ( 'NONE', #127, #225, #15 ) ;
#242 = LOCAL_TIME ( 15, 45, 34.00000000000000000, #2 ) ;
#243 = CLOSED_SHELL ( 'NONE', ( #262, #29, #156, #175, #190, #126, #14, #172, #279 ) ) ;
#244 = DIRECTION ( 'NONE',  ( 0.000000000000000000, 0.000000000000000000, 1.000000000000000000 ) ) ;
#245 = EDGE_LOOP ( 'NONE', ( #79, #123, #35, #99 ) ) ;
#246 = DIRECTION ( 'NONE',  ( 1.000000000000000000, 0.000000000000000000, 0.000000000000000000 ) ) ;
#247 = APPROVAL ( #260, 'NEURÈENÝ' ) ;
#248 = APPLICATION_CONTEXT ( 'configuration controlled 3d designs of mechanical parts and assemblies' ) ;
#249 = LOCAL_TIME ( 15, 45, 34.00000000000000000, #7 ) ;
#250 = EDGE_LOOP ( 'NONE', ( #266, #75, #148, #33 ) ) ;
#251 = AXIS2_PLACEMENT_3D ( 'NONE', #184, #157, #274 ) ;
#252 = DIRECTION ( 'NONE',  ( 0.000000000000000000, 0.000000000000000000, -1.000000000000000000 ) ) ;
#253 = CARTESIAN_POINT ( 'NONE',  ( 0.000000000000000000, 0.000000000000000000, 91.20000000000000284 ) ) ;
#254 = CARTESIAN_POINT ( 'NONE',  ( -0.5000000000000000000, 0.000000000000000000, 91.20000000000000284 ) ) ;
#255 = AXIS2_PLACEMENT_3D ( 'NONE', #77, #171, #10 ) ;
#256 = CARTESIAN_POINT ( 'NONE',  ( 0.5000000000000000000, 6.123233995736764803E-17, 1.400000000000012346 ) ) ;
#257 = CIRCLE ( 'NONE', #169, 1.250000000000000000 ) ;
#258 =( LENGTH_UNIT ( ) NAMED_UNIT ( * ) SI_UNIT ( .MILLI., .METRE. ) );
#259 = CARTESIAN_POINT ( 'NONE',  ( -1.250000000000000000, 0.000000000000000000, 1.199999999999999956 ) ) ;
#260 = APPROVAL_STATUS ( 'not_yet_approved' ) ;
#261 = DIRECTION ( 'NONE',  ( 1.000000000000000000, 0.000000000000000000, 0.000000000000000000 ) ) ;
#262 = ADVANCED_FACE ( 'NONE', ( #92 ), #209, .F. ) ;
#263 = PERSON_AND_ORGANIZATION ( #146, #56 ) ;
#264 = LOCAL_TIME ( 15, 45, 34.00000000000000000, #191 ) ;
#265 = SECURITY_CLASSIFICATION_LEVEL ( 'unclassified' ) ;
#266 = ORIENTED_EDGE ( 'NONE', *, *, #238, .F. ) ;
#267 = APPROVAL_PERSON_ORGANIZATION ( #240, #271, #47 ) ;
#268 = ORIENTED_EDGE ( 'NONE', *, *, #161, .T. ) ;
#269 = APPLICATION_PROTOCOL_DEFINITION ( 'international standard', 'config_control_design', 1994, #119 ) ;
#270 = VERTEX_POINT ( 'NONE', #286 ) ;
#271 = APPROVAL ( #164, 'NEURÈENÝ' ) ;
#272 = ORIENTED_EDGE ( 'NONE', *, *, #182, .T. ) ;
#273 = AXIS2_PLACEMENT_3D ( 'NONE', #235, #163, #115 ) ;
#274 = DIRECTION ( 'NONE',  ( -1.000000000000000000, 0.000000000000000000, 0.000000000000000000 ) ) ;
#275 = CARTESIAN_POINT ( 'NONE',  ( 0.6999999999999999556, 0.000000000000000000, 1.199999999999999289 ) ) ;
#276 = CARTESIAN_POINT ( 'NONE',  ( 0.000000000000000000, 0.000000000000000000, 1.400000000000012346 ) ) ;
#277 = SECURITY_CLASSIFICATION ( '', '', #265 ) ;
#278 = DIRECTION ( 'NONE',  ( 0.000000000000000000, 0.000000000000000000, 1.000000000000000000 ) ) ;
#279 = ADVANCED_FACE ( 'NONE', ( #142 ), #150, .F. ) ;
#280 = CYLINDRICAL_SURFACE ( 'NONE', #251, 0.5000000000000000000 ) ;
#281 = DIRECTION ( 'NONE',  ( -0.000000000000000000, -0.000000000000000000, -1.000000000000000000 ) ) ;
#282 = APPROVAL_PERSON_ORGANIZATION ( #263, #177, #288 ) ;
#283 = PERSON_AND_ORGANIZATION_ROLE ( 'design_owner' ) ;
#284 = EDGE_CURVE ( 'NONE', #53, #96, #305, .T. ) ;
#285 = CARTESIAN_POINT ( 'NONE',  ( 1.250000000000000000, 1.530808498934191571E-16, 0.000000000000000000 ) ) ;
#286 = CARTESIAN_POINT ( 'NONE',  ( -1.250000000000000000, 0.000000000000000000, 0.000000000000000000 ) ) ;
#287 = DATE_AND_TIME ( #189, #264 ) ;
#288 = APPROVAL_ROLE ( '' ) ;
#289 = AXIS2_PLACEMENT_3D ( 'NONE', #42, #129, #131 ) ;
#290 = ORIENTED_EDGE ( 'NONE', *, *, #284, .T. ) ;
#291 = EDGE_LOOP ( 'NONE', ( #272, #290 ) ) ;
#292 = CARTESIAN_POINT ( 'NONE',  ( 0.5000000000000000000, 6.123233995736764803E-17, 91.20000000000000284 ) ) ;
#293 = CC_DESIGN_APPROVAL ( #271, ( #117 ) ) ;
#294 = EDGE_CURVE ( 'NONE', #96, #270, #86, .T. ) ;
#295 = EDGE_LOOP ( 'NONE', ( #9, #101, #55, #178 ) ) ;
#296 = EDGE_CURVE ( 'NONE', #168, #149, #64, .T. ) ;
#297 = EDGE_LOOP ( 'NONE', ( #121, #74 ) ) ;
#298 = ORIENTED_EDGE ( 'NONE', *, *, #161, .F. ) ;
#299 = MANIFOLD_SOLID_BREP ( 'Zaoblit1', #243 ) ;
#300 = VECTOR ( 'NONE', #281, 1000.000000000000000 ) ;
#301 = DIRECTION ( 'NONE',  ( 0.000000000000000000, 0.000000000000000000, 1.000000000000000000 ) ) ;
#302 = CARTESIAN_POINT ( 'NONE',  ( -1.250000000000000000, 0.000000000000000000, 1.199999999999999956 ) ) ;
#303 = CARTESIAN_POINT ( 'NONE',  ( -0.5000000000000000000, 0.000000000000000000, 91.20000000000000284 ) ) ;
#304 = CC_DESIGN_PERSON_AND_ORGANIZATION_ASSIGNMENT ( #217, #283, ( #112 ) ) ;
#305 = CIRCLE ( 'NONE', #70, 1.250000000000000000 ) ;
#306 = DIRECTION ( 'NONE',  ( 1.000000000000000000, 0.000000000000000000, 0.000000000000000000 ) ) ;
#307 = CARTESIAN_POINT ( 'NONE',  ( 0.000000000000000000, 0.000000000000000000, 1.399999999999998579 ) ) ;
ENDSEC;
END-ISO-10303-21;
