ISO-10303-21;
HEADER;
FILE_DESCRIPTION (( 'STEP AP203' ),
    '1' );
FILE_NAME ('f31f.STEP',
    '2022-06-20T10:10:26',
    ( '' ),
    ( '' ),
    'SwSTEP 2.0',
    'SolidWorks 2019',
    '' );
FILE_SCHEMA (( 'CONFIG_CONTROL_DESIGN' ));
ENDSEC;

DATA;
#1 = CLOSED_SHELL ( 'NONE', ( #63, #243, #144, #185, #282, #158, #307, #133, #104 ) ) ;
#2 = CARTESIAN_POINT ( 'NONE',  ( 1.950000000000000178, 0.000000000000000000, 2.999999999999990674 ) ) ;
#3 = DIRECTION ( 'NONE',  ( 0.000000000000000000, 0.000000000000000000, 1.000000000000000000 ) ) ;
#4 = FACE_BOUND ( 'NONE', #177, .T. ) ;
#5 = PERSON ( 'NEURÈENÝ', 'NEURÈENÝ', 'NEURÈENÝ', ('NEURÈENÝ'), ('NEURÈENÝ'), ('NEURÈENÝ') ) ;
#6 = EDGE_CURVE ( 'NONE', #88, #19, #150, .T. ) ;
#7 = PLANE ( 'NONE',  #211 ) ;
#8 = AXIS2_PLACEMENT_3D ( 'NONE', #56, #198, #103 ) ;
#9 = DIRECTION ( 'NONE',  ( 1.000000000000000000, 0.000000000000000000, 0.000000000000000000 ) ) ;
#10 = AXIS2_PLACEMENT_3D ( 'NONE', #216, #77, #263 ) ;
#11 = PERSON_AND_ORGANIZATION ( #5, #208 ) ;
#12 = CALENDAR_DATE ( 2022, 20, 6 ) ;
#13 = CC_DESIGN_APPROVAL ( #123, ( #73 ) ) ;
#14 = CARTESIAN_POINT ( 'NONE',  ( 0.000000000000000000, 0.000000000000000000, 803.0000000000000000 ) ) ;
#15 = DATE_AND_TIME ( #12, #166 ) ;
#16 = MANIFOLD_SOLID_BREP ( 'Zaoblit1', #1 ) ;
#17 = ORIENTED_EDGE ( 'NONE', *, *, #292, .F. ) ;
#18 = AXIS2_PLACEMENT_3D ( 'NONE', #59, #147, #241 ) ;
#19 = VERTEX_POINT ( 'NONE', #189 ) ;
#20 = COORDINATED_UNIVERSAL_TIME_OFFSET ( 1, 0, .AHEAD. ) ;
#21 = DIRECTION ( 'NONE',  ( 1.000000000000000000, 0.000000000000000000, 0.000000000000000000 ) ) ;
#22 = VECTOR ( 'NONE', #303, 1000.000000000000000 ) ;
#23 = EDGE_LOOP ( 'NONE', ( #17, #142, #156, #136 ) ) ;
#24 = CC_DESIGN_PERSON_AND_ORGANIZATION_ASSIGNMENT ( #135, #157, ( #73 ) ) ;
#25 = AXIS2_PLACEMENT_3D ( 'NONE', #107, #129, #229 ) ;
#26 = CARTESIAN_POINT ( 'NONE',  ( 0.000000000000000000, 0.000000000000000000, 3.000000000000000000 ) ) ;
#27 = DIRECTION ( 'NONE',  ( 1.000000000000000000, 0.000000000000000000, -0.000000000000000000 ) ) ;
#28 = CYLINDRICAL_SURFACE ( 'NONE', #10, 3.500000000000000444 ) ;
#29 = CARTESIAN_POINT ( 'NONE',  ( -1.750000000000000000, 0.000000000000000000, 3.199999999999980638 ) ) ;
#30 = DIRECTION ( 'NONE',  ( -0.000000000000000000, -0.000000000000000000, -1.000000000000000000 ) ) ;
#31 = CARTESIAN_POINT ( 'NONE',  ( -1.750000000000000000, 0.000000000000000000, 803.0000000000000000 ) ) ;
#32 = CALENDAR_DATE ( 2022, 20, 6 ) ;
#33 = EDGE_CURVE ( 'NONE', #253, #187, #146, .T. ) ;
#34 = SECURITY_CLASSIFICATION ( '', '', #254 ) ;
#35 = APPROVAL_DATE_TIME ( #246, #81 ) ;
#36 = PERSON_AND_ORGANIZATION ( #5, #208 ) ;
#37 =( LENGTH_UNIT ( ) NAMED_UNIT ( * ) SI_UNIT ( .MILLI., .METRE. ) );
#38 = LOCAL_TIME ( 12, 10, 26.00000000000000000, #186 ) ;
#39 = AXIS2_PLACEMENT_3D ( 'NONE', #220, #222, #105 ) ;
#40 = COORDINATED_UNIVERSAL_TIME_OFFSET ( 1, 0, .AHEAD. ) ;
#41 = ORIENTED_EDGE ( 'NONE', *, *, #6, .F. ) ;
#42 = DATE_AND_TIME ( #45, #38 ) ;
#43 = PERSON_AND_ORGANIZATION ( #5, #208 ) ;
#44 = ORIENTED_EDGE ( 'NONE', *, *, #297, .F. ) ;
#45 = CALENDAR_DATE ( 2022, 20, 6 ) ;
#46 = CIRCLE ( 'NONE', #223, 1.950000000000000178 ) ;
#47 = DIRECTION ( 'NONE',  ( 0.000000000000000000, 0.000000000000000000, 1.000000000000000000 ) ) ;
#48 = VERTEX_POINT ( 'NONE', #237 ) ;
#49 = EDGE_CURVE ( 'NONE', #212, #48, #117, .T. ) ;
#50 = AXIS2_PLACEMENT_3D ( 'NONE', #242, #168, #9 ) ;
#51 = DIRECTION ( 'NONE',  ( 1.000000000000000000, 0.000000000000000000, 0.000000000000000000 ) ) ;
#52 = EDGE_LOOP ( 'NONE', ( #305, #214, #278, #44 ) ) ;
#53 = CARTESIAN_POINT ( 'NONE',  ( 0.000000000000000000, 0.000000000000000000, 3.000000000000000000 ) ) ;
#54 = AXIS2_PLACEMENT_3D ( 'NONE', #306, #98, #193 ) ;
#55 = DIRECTION ( 'NONE',  ( 1.000000000000000000, 0.000000000000000000, 0.000000000000000000 ) ) ;
#56 = CARTESIAN_POINT ( 'NONE',  ( 1.950000000000000178, 0.000000000000000000, 3.199999999999980638 ) ) ;
#57 = DIRECTION ( 'NONE',  ( 0.000000000000000000, 0.000000000000000000, 1.000000000000000000 ) ) ;
#58 = EDGE_CURVE ( 'NONE', #19, #159, #213, .T. ) ;
#59 = CARTESIAN_POINT ( 'NONE',  ( 0.000000000000000000, 0.000000000000000000, 803.0000000000000000 ) ) ;
#60 = UNCERTAINTY_MEASURE_WITH_UNIT (LENGTH_MEASURE( 1.000000000000000082E-05 ), #37, 'distance_accuracy_value', 'NONE');
#61 = PERSON_AND_ORGANIZATION ( #5, #208 ) ;
#62 = CYLINDRICAL_SURFACE ( 'NONE', #86, 1.750000000000000000 ) ;
#63 = ADVANCED_FACE ( 'NONE', ( #235 ), #194, .F. ) ;
#64 =( NAMED_UNIT ( * ) PLANE_ANGLE_UNIT ( ) SI_UNIT ( $, .RADIAN. ) );
#65 = CARTESIAN_POINT ( 'NONE',  ( 0.000000000000000000, 0.000000000000000000, 3.000000000000000000 ) ) ;
#66 = DATE_AND_TIME ( #231, #137 ) ;
#67 = ORIENTED_EDGE ( 'NONE', *, *, #75, .T. ) ;
#68 = PERSON_AND_ORGANIZATION_ROLE ( 'creator' ) ;
#69 = ORIENTED_EDGE ( 'NONE', *, *, #155, .T. ) ;
#70 = ORIENTED_EDGE ( 'NONE', *, *, #297, .T. ) ;
#71 = ORIENTED_EDGE ( 'NONE', *, *, #155, .F. ) ;
#72 = CARTESIAN_POINT ( 'NONE',  ( -3.500000000000000444, 0.000000000000000000, 3.000000000000000000 ) ) ;
#73 = PRODUCT_DEFINITION_FORMATION_WITH_SPECIFIED_SOURCE ( 'LIBOVOLNÝ', '', #76, .NOT_KNOWN. ) ;
#74 = CARTESIAN_POINT ( 'NONE',  ( -3.500000000000000444, 0.000000000000000000, 0.000000000000000000 ) ) ;
#75 = EDGE_CURVE ( 'NONE', #159, #165, #225, .T. ) ;
#76 = PRODUCT ( 'f31f', 'f31f', '', ( #108 ) ) ;
#77 = DIRECTION ( 'NONE',  ( -0.000000000000000000, -0.000000000000000000, -1.000000000000000000 ) ) ;
#78 = DIRECTION ( 'NONE',  ( 0.000000000000000000, 0.000000000000000000, 1.000000000000000000 ) ) ;
#79 = CARTESIAN_POINT ( 'NONE',  ( 0.000000000000000000, 0.000000000000000000, 3.199999999999980638 ) ) ;
#80 =( GEOMETRIC_REPRESENTATION_CONTEXT ( 3 ) GLOBAL_UNCERTAINTY_ASSIGNED_CONTEXT ( ( #60 ) ) GLOBAL_UNIT_ASSIGNED_CONTEXT ( ( #37, #64, #296 ) ) REPRESENTATION_CONTEXT ( 'NONE', 'WORKASPACE' ) );
#81 = APPROVAL ( #152, 'NEURÈENÝ' ) ;
#82 = FACE_OUTER_BOUND ( 'NONE', #276, .T. ) ;
#83 = EDGE_LOOP ( 'NONE', ( #41, #234, #69, #184 ) ) ;
#84 = CARTESIAN_POINT ( 'NONE',  ( 0.000000000000000000, 0.000000000000000000, 0.000000000000000000 ) ) ;
#85 = ORIENTED_EDGE ( 'NONE', *, *, #110, .F. ) ;
#86 = AXIS2_PLACEMENT_3D ( 'NONE', #14, #290, #228 ) ;
#87 = PERSON_AND_ORGANIZATION ( #5, #208 ) ;
#88 = VERTEX_POINT ( 'NONE', #300 ) ;
#89 = CIRCLE ( 'NONE', #164, 1.750000000000000000 ) ;
#90 = COORDINATED_UNIVERSAL_TIME_OFFSET ( 1, 0, .AHEAD. ) ;
#91 = CC_DESIGN_PERSON_AND_ORGANIZATION_ASSIGNMENT ( #36, #226, ( #140 ) ) ;
#92 = VECTOR ( 'NONE', #179, 1000.000000000000000 ) ;
#93 = DATE_TIME_ROLE ( 'classification_date' ) ;
#94 = EDGE_LOOP ( 'NONE', ( #119, #71 ) ) ;
#95 = ORIENTED_EDGE ( 'NONE', *, *, #113, .T. ) ;
#96 = VERTEX_POINT ( 'NONE', #196 ) ;
#97 = ORIENTED_EDGE ( 'NONE', *, *, #236, .T. ) ;
#98 = DIRECTION ( 'NONE',  ( 0.000000000000000000, 0.000000000000000000, 1.000000000000000000 ) ) ;
#99 = FACE_OUTER_BOUND ( 'NONE', #52, .T. ) ;
#100 = EDGE_CURVE ( 'NONE', #187, #212, #302, .T. ) ;
#101 = DIRECTION ( 'NONE',  ( -1.000000000000000000, 0.000000000000000000, 0.000000000000000000 ) ) ;
#102 = FACE_OUTER_BOUND ( 'NONE', #116, .T. ) ;
#103 = DIRECTION ( 'NONE',  ( 0.000000000000000000, 0.000000000000000000, -1.000000000000000000 ) ) ;
#104 = ADVANCED_FACE ( 'NONE', ( #99 ), #286, .F. ) ;
#105 = DIRECTION ( 'NONE',  ( 1.000000000000000000, 0.000000000000000000, 0.000000000000000000 ) ) ;
#106 = AXIS2_PLACEMENT_3D ( 'NONE', #217, #3, #55 ) ;
#107 = CARTESIAN_POINT ( 'NONE',  ( -1.950000000000000178, 2.388061258337339136E-16, 3.199999999999980638 ) ) ;
#108 = MECHANICAL_CONTEXT ( 'NONE', #161, 'mechanical' ) ;
#109 = AXIS2_PLACEMENT_3D ( 'NONE', #255, #47, #162 ) ;
#110 = EDGE_CURVE ( 'NONE', #96, #215, #180, .T. ) ;
#111 = ADVANCED_BREP_SHAPE_REPRESENTATION ( 'f31f', ( #16, #219 ), #80 ) ;
#112 = DIRECTION ( 'NONE',  ( -0.000000000000000000, -0.000000000000000000, -1.000000000000000000 ) ) ;
#113 = EDGE_CURVE ( 'NONE', #187, #253, #89, .T. ) ;
#114 = DIRECTION ( 'NONE',  ( 0.000000000000000000, 0.000000000000000000, 1.000000000000000000 ) ) ;
#115 = EDGE_LOOP ( 'NONE', ( #250, #272 ) ) ;
#116 = EDGE_LOOP ( 'NONE', ( #97, #269 ) ) ;
#117 = CIRCLE ( 'NONE', #188, 1.950000000000000178 ) ;
#118 = EDGE_CURVE ( 'NONE', #88, #165, #125, .T. ) ;
#119 = ORIENTED_EDGE ( 'NONE', *, *, #75, .F. ) ;
#120 = LOCAL_TIME ( 12, 10, 26.00000000000000000, #247 ) ;
#121 = DIRECTION ( 'NONE',  ( -0.000000000000000000, -0.000000000000000000, -1.000000000000000000 ) ) ;
#122 = DIRECTION ( 'NONE',  ( 0.000000000000000000, 0.000000000000000000, 1.000000000000000000 ) ) ;
#123 = APPROVAL ( #207, 'NEURÈENÝ' ) ;
#124 = DIRECTION ( 'NONE',  ( 1.000000000000000000, 0.000000000000000000, 0.000000000000000000 ) ) ;
#125 = LINE ( 'NONE', #172, #266 ) ;
#126 = CARTESIAN_POINT ( 'NONE',  ( 0.000000000000000000, 0.000000000000000000, 3.199999999999980638 ) ) ;
#127 = CARTESIAN_POINT ( 'NONE',  ( -1.750000000000000000, 0.000000000000000000, 803.0000000000000000 ) ) ;
#128 = FACE_OUTER_BOUND ( 'NONE', #23, .T. ) ;
#129 = DIRECTION ( 'NONE',  ( 1.224646799147353207E-16, 1.000000000000000000, -0.000000000000000000 ) ) ;
#130 = EDGE_CURVE ( 'NONE', #215, #253, #149, .T. ) ;
#131 = LINE ( 'NONE', #202, #92 ) ;
#132 = APPROVAL_PERSON_ORGANIZATION ( #87, #123, #299 ) ;
#133 = ADVANCED_FACE ( 'NONE', ( #173 ), #200, .T. ) ;
#134 = APPLICATION_PROTOCOL_DEFINITION ( 'international standard', 'config_control_design', 1994, #161 ) ;
#135 = PERSON_AND_ORGANIZATION ( #5, #208 ) ;
#136 = ORIENTED_EDGE ( 'NONE', *, *, #33, .T. ) ;
#137 = LOCAL_TIME ( 12, 10, 26.00000000000000000, #20 ) ;
#138 = PERSON_AND_ORGANIZATION ( #5, #208 ) ;
#139 = DIRECTION ( 'NONE',  ( 0.000000000000000000, 0.000000000000000000, 1.000000000000000000 ) ) ;
#140 = PRODUCT_DEFINITION ( 'NEZNÁMÝ', '', #73, #170 ) ;
#141 = ORIENTED_EDGE ( 'NONE', *, *, #58, .T. ) ;
#142 = ORIENTED_EDGE ( 'NONE', *, *, #218, .F. ) ;
#143 = CC_DESIGN_SECURITY_CLASSIFICATION ( #34, ( #73 ) ) ;
#144 = ADVANCED_FACE ( 'NONE', ( #221 ), #287, .T. ) ;
#145 = DIRECTION ( 'NONE',  ( 1.000000000000000000, 0.000000000000000000, 0.000000000000000000 ) ) ;
#146 = CIRCLE ( 'NONE', #298, 1.750000000000000000 ) ;
#147 = DIRECTION ( 'NONE',  ( -0.000000000000000000, -0.000000000000000000, -1.000000000000000000 ) ) ;
#148 = CARTESIAN_POINT ( 'NONE',  ( 0.000000000000000000, 0.000000000000000000, 803.0000000000000000 ) ) ;
#149 = LINE ( 'NONE', #31, #160 ) ;
#150 = CIRCLE ( 'NONE', #109, 3.500000000000000444 ) ;
#151 = DIRECTION ( 'NONE',  ( 0.000000000000000000, 0.000000000000000000, 1.000000000000000000 ) ) ;
#152 = APPROVAL_STATUS ( 'not_yet_approved' ) ;
#153 = AXIS2_PLACEMENT_3D ( 'NONE', #65, #175, #178 ) ;
#154 = DIRECTION ( 'NONE',  ( 1.000000000000000000, 0.000000000000000000, 0.000000000000000000 ) ) ;
#155 = EDGE_CURVE ( 'NONE', #165, #159, #283, .T. ) ;
#156 = ORIENTED_EDGE ( 'NONE', *, *, #130, .T. ) ;
#157 = PERSON_AND_ORGANIZATION_ROLE ( 'design_supplier' ) ;
#158 = ADVANCED_FACE ( 'NONE', ( #240 ), #7, .F. ) ;
#159 = VERTEX_POINT ( 'NONE', #74 ) ;
#160 = VECTOR ( 'NONE', #267, 1000.000000000000000 ) ;
#161 = APPLICATION_CONTEXT ( 'configuration controlled 3d designs of mechanical parts and assemblies' ) ;
#162 = DIRECTION ( 'NONE',  ( 1.000000000000000000, 0.000000000000000000, 0.000000000000000000 ) ) ;
#163 = ORIENTED_EDGE ( 'NONE', *, *, #33, .F. ) ;
#164 = AXIS2_PLACEMENT_3D ( 'NONE', #126, #151, #262 ) ;
#165 = VERTEX_POINT ( 'NONE', #167 ) ;
#166 = LOCAL_TIME ( 12, 10, 26.00000000000000000, #40 ) ;
#167 = CARTESIAN_POINT ( 'NONE',  ( 3.500000000000000444, 4.286263797015737088E-16, 0.000000000000000000 ) ) ;
#168 = DIRECTION ( 'NONE',  ( 0.000000000000000000, 0.000000000000000000, 1.000000000000000000 ) ) ;
#169 = FACE_OUTER_BOUND ( 'NONE', #203, .T. ) ;
#170 = DESIGN_CONTEXT ( 'detailed design', #195, 'design' ) ;
#171 = AXIS2_PLACEMENT_3D ( 'NONE', #148, #201, #27 ) ;
#172 = CARTESIAN_POINT ( 'NONE',  ( 3.500000000000000444, 4.286263797015737088E-16, 3.000000000000000000 ) ) ;
#173 = FACE_OUTER_BOUND ( 'NONE', #115, .T. ) ;
#174 = CC_DESIGN_DATE_AND_TIME_ASSIGNMENT ( #42, #93, ( #34 ) ) ;
#175 = DIRECTION ( 'NONE',  ( 0.000000000000000000, 0.000000000000000000, 1.000000000000000000 ) ) ;
#176 = CIRCLE ( 'NONE', #39, 3.500000000000000444 ) ;
#177 = EDGE_LOOP ( 'NONE', ( #258, #70 ) ) ;
#178 = DIRECTION ( 'NONE',  ( 1.000000000000000000, 0.000000000000000000, -0.000000000000000000 ) ) ;
#179 = DIRECTION ( 'NONE',  ( -0.000000000000000000, -0.000000000000000000, -1.000000000000000000 ) ) ;
#180 = CIRCLE ( 'NONE', #50, 1.750000000000000000 ) ;
#181 = DATE_AND_TIME ( #32, #245 ) ;
#182 = AXIS2_PLACEMENT_3D ( 'NONE', #53, #30, #101 ) ;
#183 = PERSON_AND_ORGANIZATION ( #5, #208 ) ;
#184 = ORIENTED_EDGE ( 'NONE', *, *, #58, .F. ) ;
#185 = ADVANCED_FACE ( 'NONE', ( #169 ), #28, .T. ) ;
#186 = COORDINATED_UNIVERSAL_TIME_OFFSET ( 1, 0, .AHEAD. ) ;
#187 = VERTEX_POINT ( 'NONE', #284 ) ;
#188 = AXIS2_PLACEMENT_3D ( 'NONE', #26, #121, #21 ) ;
#189 = CARTESIAN_POINT ( 'NONE',  ( -3.500000000000000444, 0.000000000000000000, 3.000000000000000000 ) ) ;
#190 = CC_DESIGN_APPROVAL ( #81, ( #140 ) ) ;
#191 = ORIENTED_EDGE ( 'NONE', *, *, #292, .T. ) ;
#192 = APPROVAL ( #275, 'NEURÈENÝ' ) ;
#193 = DIRECTION ( 'NONE',  ( 1.000000000000000000, 0.000000000000000000, 0.000000000000000000 ) ) ;
#194 = TOROIDAL_SURFACE ( 'NONE', #54, 1.950000000000000178, 0.2000000000000000111 ) ;
#195 = APPLICATION_CONTEXT ( 'configuration controlled 3d designs of mechanical parts and assemblies' ) ;
#196 = CARTESIAN_POINT ( 'NONE',  ( 1.750000000000000000, 2.143131898507868297E-16, 803.0000000000000000 ) ) ;
#197 = CARTESIAN_POINT ( 'NONE',  ( 0.000000000000000000, 0.000000000000000000, 0.000000000000000000 ) ) ;
#198 = DIRECTION ( 'NONE',  ( 0.000000000000000000, -1.000000000000000000, 0.000000000000000000 ) ) ;
#199 = AXIS2_PLACEMENT_3D ( 'NONE', #79, #78, #124 ) ;
#200 = PLANE ( 'NONE',  #171 ) ;
#201 = DIRECTION ( 'NONE',  ( 0.000000000000000000, 0.000000000000000000, 1.000000000000000000 ) ) ;
#202 = CARTESIAN_POINT ( 'NONE',  ( 1.750000000000000000, 2.143131898507868297E-16, 803.0000000000000000 ) ) ;
#203 = EDGE_LOOP ( 'NONE', ( #232, #301, #141, #67 ) ) ;
#204 = DIRECTION ( 'NONE',  ( 0.000000000000000000, 0.000000000000000000, 1.000000000000000000 ) ) ;
#205 = DATE_TIME_ROLE ( 'creation_date' ) ;
#206 = CARTESIAN_POINT ( 'NONE',  ( 0.000000000000000000, 0.000000000000000000, 3.000000000000000000 ) ) ;
#207 = APPROVAL_STATUS ( 'not_yet_approved' ) ;
#208 = ORGANIZATION ( 'NEURÈENÝ', 'NEURÈENÝ', '' ) ;
#209 = APPROVAL_DATE_TIME ( #66, #192 ) ;
#210 = DIRECTION ( 'NONE',  ( 1.000000000000000000, 0.000000000000000000, 0.000000000000000000 ) ) ;
#211 = AXIS2_PLACEMENT_3D ( 'NONE', #197, #57, #244 ) ;
#212 = VERTEX_POINT ( 'NONE', #2 ) ;
#213 = LINE ( 'NONE', #72, #22 ) ;
#214 = ORIENTED_EDGE ( 'NONE', *, *, #113, .F. ) ;
#215 = VERTEX_POINT ( 'NONE', #127 ) ;
#216 = CARTESIAN_POINT ( 'NONE',  ( 0.000000000000000000, 0.000000000000000000, 3.000000000000000000 ) ) ;
#217 = CARTESIAN_POINT ( 'NONE',  ( 0.000000000000000000, 0.000000000000000000, 803.0000000000000000 ) ) ;
#218 = EDGE_CURVE ( 'NONE', #215, #96, #304, .T. ) ;
#219 = AXIS2_PLACEMENT_3D ( 'NONE', #84, #204, #154 ) ;
#220 = CARTESIAN_POINT ( 'NONE',  ( 0.000000000000000000, 0.000000000000000000, 3.000000000000000000 ) ) ;
#221 = FACE_OUTER_BOUND ( 'NONE', #83, .T. ) ;
#222 = DIRECTION ( 'NONE',  ( 0.000000000000000000, 0.000000000000000000, 1.000000000000000000 ) ) ;
#223 = AXIS2_PLACEMENT_3D ( 'NONE', #206, #112, #271 ) ;
#224 = APPLICATION_PROTOCOL_DEFINITION ( 'international standard', 'config_control_design', 1994, #195 ) ;
#225 = CIRCLE ( 'NONE', #264, 3.500000000000000444 ) ;
#226 = PERSON_AND_ORGANIZATION_ROLE ( 'creator' ) ;
#227 = CC_DESIGN_APPROVAL ( #192, ( #34 ) ) ;
#228 = DIRECTION ( 'NONE',  ( -1.000000000000000000, 0.000000000000000000, 0.000000000000000000 ) ) ;
#229 = DIRECTION ( 'NONE',  ( -1.000000000000000000, 1.224646799147354686E-16, 0.000000000000000000 ) ) ;
#230 = CC_DESIGN_PERSON_AND_ORGANIZATION_ASSIGNMENT ( #138, #277, ( #34 ) ) ;
#231 = CALENDAR_DATE ( 2022, 20, 6 ) ;
#232 = ORIENTED_EDGE ( 'NONE', *, *, #118, .F. ) ;
#233 = SHAPE_DEFINITION_REPRESENTATION ( #293, #111 ) ;
#234 = ORIENTED_EDGE ( 'NONE', *, *, #118, .T. ) ;
#235 = FACE_OUTER_BOUND ( 'NONE', #291, .T. ) ;
#236 = EDGE_CURVE ( 'NONE', #19, #88, #176, .T. ) ;
#237 = CARTESIAN_POINT ( 'NONE',  ( -1.950000000000000178, 2.388061258337339136E-16, 2.999999999999990674 ) ) ;
#238 = APPROVAL_PERSON_ORGANIZATION ( #183, #192, #252 ) ;
#239 = CARTESIAN_POINT ( 'NONE',  ( 0.000000000000000000, 0.000000000000000000, 0.000000000000000000 ) ) ;
#240 = FACE_OUTER_BOUND ( 'NONE', #94, .T. ) ;
#241 = DIRECTION ( 'NONE',  ( -1.000000000000000000, 0.000000000000000000, 0.000000000000000000 ) ) ;
#242 = CARTESIAN_POINT ( 'NONE',  ( 0.000000000000000000, 0.000000000000000000, 803.0000000000000000 ) ) ;
#243 = ADVANCED_FACE ( 'NONE', ( #82 ), #268, .T. ) ;
#244 = DIRECTION ( 'NONE',  ( 1.000000000000000000, 0.000000000000000000, -0.000000000000000000 ) ) ;
#245 = LOCAL_TIME ( 12, 10, 26.00000000000000000, #90 ) ;
#246 = DATE_AND_TIME ( #295, #120 ) ;
#247 = COORDINATED_UNIVERSAL_TIME_OFFSET ( 1, 0, .AHEAD. ) ;
#248 = PERSON_AND_ORGANIZATION_ROLE ( 'design_owner' ) ;
#249 = APPROVAL_PERSON_ORGANIZATION ( #61, #81, #270 ) ;
#250 = ORIENTED_EDGE ( 'NONE', *, *, #218, .T. ) ;
#251 = PRODUCT_RELATED_PRODUCT_CATEGORY ( 'detail', '', ( #76 ) ) ;
#252 = APPROVAL_ROLE ( '' ) ;
#253 = VERTEX_POINT ( 'NONE', #29 ) ;
#254 = SECURITY_CLASSIFICATION_LEVEL ( 'unclassified' ) ;
#255 = CARTESIAN_POINT ( 'NONE',  ( 0.000000000000000000, 0.000000000000000000, 3.000000000000000000 ) ) ;
#256 = ORIENTED_EDGE ( 'NONE', *, *, #130, .F. ) ;
#257 = CC_DESIGN_PERSON_AND_ORGANIZATION_ASSIGNMENT ( #11, #248, ( #76 ) ) ;
#258 = ORIENTED_EDGE ( 'NONE', *, *, #49, .T. ) ;
#259 = ORIENTED_EDGE ( 'NONE', *, *, #100, .F. ) ;
#260 = CIRCLE ( 'NONE', #25, 0.1999999999999998723 ) ;
#261 = CC_DESIGN_DATE_AND_TIME_ASSIGNMENT ( #15, #205, ( #140 ) ) ;
#262 = DIRECTION ( 'NONE',  ( 1.000000000000000000, 0.000000000000000000, 0.000000000000000000 ) ) ;
#263 = DIRECTION ( 'NONE',  ( -1.000000000000000000, 0.000000000000000000, 0.000000000000000000 ) ) ;
#264 = AXIS2_PLACEMENT_3D ( 'NONE', #239, #114, #210 ) ;
#265 = DIRECTION ( 'NONE',  ( -0.000000000000000000, -0.000000000000000000, -1.000000000000000000 ) ) ;
#266 = VECTOR ( 'NONE', #265, 1000.000000000000000 ) ;
#267 = DIRECTION ( 'NONE',  ( -0.000000000000000000, -0.000000000000000000, -1.000000000000000000 ) ) ;
#268 = CYLINDRICAL_SURFACE ( 'NONE', #18, 1.750000000000000000 ) ;
#269 = ORIENTED_EDGE ( 'NONE', *, *, #6, .T. ) ;
#270 = APPROVAL_ROLE ( '' ) ;
#271 = DIRECTION ( 'NONE',  ( 1.000000000000000000, 0.000000000000000000, 0.000000000000000000 ) ) ;
#272 = ORIENTED_EDGE ( 'NONE', *, *, #110, .T. ) ;
#273 = CC_DESIGN_PERSON_AND_ORGANIZATION_ASSIGNMENT ( #43, #68, ( #73 ) ) ;
#274 = APPROVAL_DATE_TIME ( #181, #123 ) ;
#275 = APPROVAL_STATUS ( 'not_yet_approved' ) ;
#276 = EDGE_LOOP ( 'NONE', ( #85, #191, #95, #256 ) ) ;
#277 = PERSON_AND_ORGANIZATION_ROLE ( 'classification_officer' ) ;
#278 = ORIENTED_EDGE ( 'NONE', *, *, #100, .T. ) ;
#279 = CARTESIAN_POINT ( 'NONE',  ( 0.000000000000000000, 0.000000000000000000, 3.199999999999980638 ) ) ;
#280 = ORIENTED_EDGE ( 'NONE', *, *, #49, .F. ) ;
#281 = ORIENTED_EDGE ( 'NONE', *, *, #288, .T. ) ;
#282 = ADVANCED_FACE ( 'NONE', ( #4, #102 ), #285, .T. ) ;
#283 = CIRCLE ( 'NONE', #294, 3.500000000000000444 ) ;
#284 = CARTESIAN_POINT ( 'NONE',  ( 1.750000000000000000, 2.143131898507868297E-16, 3.199999999999980638 ) ) ;
#285 = PLANE ( 'NONE',  #153 ) ;
#286 = TOROIDAL_SURFACE ( 'NONE', #199, 1.950000000000000178, 0.2000000000000000111 ) ;
#287 = CYLINDRICAL_SURFACE ( 'NONE', #182, 3.500000000000000444 ) ;
#288 = EDGE_CURVE ( 'NONE', #253, #48, #260, .T. ) ;
#289 = CARTESIAN_POINT ( 'NONE',  ( 0.000000000000000000, 0.000000000000000000, 0.000000000000000000 ) ) ;
#290 = DIRECTION ( 'NONE',  ( -0.000000000000000000, -0.000000000000000000, -1.000000000000000000 ) ) ;
#291 = EDGE_LOOP ( 'NONE', ( #163, #281, #280, #259 ) ) ;
#292 = EDGE_CURVE ( 'NONE', #96, #187, #131, .T. ) ;
#293 = PRODUCT_DEFINITION_SHAPE ( 'NONE', 'NONE',  #140 ) ;
#294 = AXIS2_PLACEMENT_3D ( 'NONE', #289, #122, #145 ) ;
#295 = CALENDAR_DATE ( 2022, 20, 6 ) ;
#296 =( NAMED_UNIT ( * ) SI_UNIT ( $, .STERADIAN. ) SOLID_ANGLE_UNIT ( ) );
#297 = EDGE_CURVE ( 'NONE', #48, #212, #46, .T. ) ;
#298 = AXIS2_PLACEMENT_3D ( 'NONE', #279, #139, #51 ) ;
#299 = APPROVAL_ROLE ( '' ) ;
#300 = CARTESIAN_POINT ( 'NONE',  ( 3.500000000000000444, 4.286263797015737088E-16, 3.000000000000000000 ) ) ;
#301 = ORIENTED_EDGE ( 'NONE', *, *, #236, .F. ) ;
#302 = CIRCLE ( 'NONE', #8, 0.2000000000000000944 ) ;
#303 = DIRECTION ( 'NONE',  ( -0.000000000000000000, -0.000000000000000000, -1.000000000000000000 ) ) ;
#304 = CIRCLE ( 'NONE', #106, 1.750000000000000000 ) ;
#305 = ORIENTED_EDGE ( 'NONE', *, *, #288, .F. ) ;
#306 = CARTESIAN_POINT ( 'NONE',  ( 0.000000000000000000, 0.000000000000000000, 3.199999999999980638 ) ) ;
#307 = ADVANCED_FACE ( 'NONE', ( #128 ), #62, .T. ) ;
ENDSEC;
END-ISO-10303-21;
