ISO-10303-21;
HEADER;
FILE_DESCRIPTION (( 'STEP AP203' ),
    '1' );
FILE_NAME ('93f1.STEP',
    '2022-06-20T10:23:00',
    ( '' ),
    ( '' ),
    'SwSTEP 2.0',
    'SolidWorks 2019',
    '' );
FILE_SCHEMA (( 'CONFIG_CONTROL_DESIGN' ));
ENDSEC;

DATA;
#1 = MANIFOLD_SOLID_BREP ( 'Zaoblit1', #228 ) ;
#2 = ORIENTED_EDGE ( 'NONE', *, *, #133, .T. ) ;
#3 = APPROVAL_PERSON_ORGANIZATION ( #61, #236, #285 ) ;
#4 = SHAPE_DEFINITION_REPRESENTATION ( #106, #24 ) ;
#5 = EDGE_LOOP ( 'NONE', ( #230, #238 ) ) ;
#6 = CARTESIAN_POINT ( 'NONE',  ( 0.000000000000000000, 0.000000000000000000, 1.500000000000000000 ) ) ;
#7 = DIRECTION ( 'NONE',  ( 1.000000000000000000, 0.000000000000000000, 0.000000000000000000 ) ) ;
#8 = CYLINDRICAL_SURFACE ( 'NONE', #128, 0.7500000000000001110 ) ;
#9 = CC_DESIGN_APPROVAL ( #203, ( #87 ) ) ;
#10 = DIRECTION ( 'NONE',  ( -0.000000000000000000, -0.000000000000000000, -1.000000000000000000 ) ) ;
#11 = DIRECTION ( 'NONE',  ( -1.000000000000000000, 1.224646799147353207E-16, 0.000000000000000000 ) ) ;
#12 = CARTESIAN_POINT ( 'NONE',  ( 0.000000000000000000, 0.000000000000000000, 161.5000000000000000 ) ) ;
#13 = CIRCLE ( 'NONE', #96, 1.500000000000000222 ) ;
#14 = CIRCLE ( 'NONE', #167, 1.500000000000000222 ) ;
#15 = CARTESIAN_POINT ( 'NONE',  ( -1.500000000000000222, 0.000000000000000000, 1.500000000000000000 ) ) ;
#16 = ORIENTED_EDGE ( 'NONE', *, *, #284, .T. ) ;
#17 = PERSON_AND_ORGANIZATION ( #288, #147 ) ;
#18 = CIRCLE ( 'NONE', #195, 0.7500000000000001110 ) ;
#19 = APPROVAL_DATE_TIME ( #259, #236 ) ;
#20 = ORIENTED_EDGE ( 'NONE', *, *, #247, .F. ) ;
#21 = AXIS2_PLACEMENT_3D ( 'NONE', #251, #201, #11 ) ;
#22 = APPROVAL_STATUS ( 'not_yet_approved' ) ;
#23 = EDGE_CURVE ( 'NONE', #187, #214, #265, .T. ) ;
#24 = ADVANCED_BREP_SHAPE_REPRESENTATION ( '93f1', ( #1, #109 ), #180 ) ;
#25 = VERTEX_POINT ( 'NONE', #28 ) ;
#26 = VECTOR ( 'NONE', #292, 1000.000000000000000 ) ;
#27 = DIRECTION ( 'NONE',  ( 1.000000000000000000, 0.000000000000000000, -0.000000000000000000 ) ) ;
#28 = CARTESIAN_POINT ( 'NONE',  ( -1.500000000000000222, 0.000000000000000000, 0.000000000000000000 ) ) ;
#29 = CARTESIAN_POINT ( 'NONE',  ( 0.7500000000000001110, 9.184850993605150903E-17, 1.700000000000007061 ) ) ;
#30 = CIRCLE ( 'NONE', #277, 1.500000000000000222 ) ;
#31 = DIRECTION ( 'NONE',  ( 0.000000000000000000, 0.000000000000000000, -1.000000000000000000 ) ) ;
#32 = EDGE_CURVE ( 'NONE', #190, #183, #158, .T. ) ;
#33 = EDGE_CURVE ( 'NONE', #303, #25, #13, .T. ) ;
#34 = CARTESIAN_POINT ( 'NONE',  ( 0.000000000000000000, 0.000000000000000000, 1.700000000000007061 ) ) ;
#35 = CC_DESIGN_PERSON_AND_ORGANIZATION_ASSIGNMENT ( #233, #63, ( #87 ) ) ;
#36 = AXIS2_PLACEMENT_3D ( 'NONE', #179, #276, #79 ) ;
#37 = CARTESIAN_POINT ( 'NONE',  ( 0.000000000000000000, 0.000000000000000000, 1.700000000000007061 ) ) ;
#38 = CARTESIAN_POINT ( 'NONE',  ( 1.500000000000000222, 1.836970198721030181E-16, 1.500000000000000000 ) ) ;
#39 = FACE_OUTER_BOUND ( 'NONE', #262, .T. ) ;
#40 =( NAMED_UNIT ( * ) SI_UNIT ( $, .STERADIAN. ) SOLID_ANGLE_UNIT ( ) );
#41 = APPLICATION_CONTEXT ( 'configuration controlled 3d designs of mechanical parts and assemblies' ) ;
#42 = CALENDAR_DATE ( 2022, 20, 6 ) ;
#43 = EDGE_CURVE ( 'NONE', #183, #97, #221, .T. ) ;
#44 = DATE_AND_TIME ( #254, #184 ) ;
#45 = ORIENTED_EDGE ( 'NONE', *, *, #188, .F. ) ;
#46 = DIRECTION ( 'NONE',  ( 0.000000000000000000, 0.000000000000000000, 1.000000000000000000 ) ) ;
#47 = DIRECTION ( 'NONE',  ( -0.000000000000000000, -0.000000000000000000, -1.000000000000000000 ) ) ;
#48 = LOCAL_TIME ( 12, 23, 0.000000000000000000, #94 ) ;
#49 = CYLINDRICAL_SURFACE ( 'NONE', #140, 1.500000000000000222 ) ;
#50 = APPROVAL_DATE_TIME ( #185, #227 ) ;
#51 = CIRCLE ( 'NONE', #72, 0.9500000000000000666 ) ;
#52 = CARTESIAN_POINT ( 'NONE',  ( 0.000000000000000000, 0.000000000000000000, 161.5000000000000000 ) ) ;
#53 = CC_DESIGN_PERSON_AND_ORGANIZATION_ASSIGNMENT ( #306, #237, ( #202 ) ) ;
#54 = APPLICATION_CONTEXT ( 'configuration controlled 3d designs of mechanical parts and assemblies' ) ;
#55 = DIRECTION ( 'NONE',  ( 1.000000000000000000, 0.000000000000000000, 0.000000000000000000 ) ) ;
#56 = AXIS2_PLACEMENT_3D ( 'NONE', #70, #264, #27 ) ;
#57 = DIRECTION ( 'NONE',  ( 0.000000000000000000, 0.000000000000000000, 1.000000000000000000 ) ) ;
#58 = LOCAL_TIME ( 12, 23, 0.000000000000000000, #186 ) ;
#59 = PLANE ( 'NONE',  #103 ) ;
#60 = DIRECTION ( 'NONE',  ( 1.000000000000000000, 0.000000000000000000, 0.000000000000000000 ) ) ;
#61 = PERSON_AND_ORGANIZATION ( #288, #147 ) ;
#62 = EDGE_LOOP ( 'NONE', ( #174, #280 ) ) ;
#63 = PERSON_AND_ORGANIZATION_ROLE ( 'creator' ) ;
#64 = EDGE_LOOP ( 'NONE', ( #145, #166 ) ) ;
#65 = ORIENTED_EDGE ( 'NONE', *, *, #188, .T. ) ;
#66 = ORIENTED_EDGE ( 'NONE', *, *, #199, .F. ) ;
#67 = DIRECTION ( 'NONE',  ( 1.000000000000000000, 0.000000000000000000, 0.000000000000000000 ) ) ;
#68 = EDGE_LOOP ( 'NONE', ( #121, #240, #217, #101 ) ) ;
#69 = ADVANCED_FACE ( 'NONE', ( #169 ), #102, .F. ) ;
#70 = CARTESIAN_POINT ( 'NONE',  ( 0.000000000000000000, 0.000000000000000000, 1.500000000000000000 ) ) ;
#71 = FACE_OUTER_BOUND ( 'NONE', #263, .T. ) ;
#72 = AXIS2_PLACEMENT_3D ( 'NONE', #135, #200, #60 ) ;
#73 = CARTESIAN_POINT ( 'NONE',  ( -1.500000000000000222, 0.000000000000000000, 1.500000000000000000 ) ) ;
#74 = EDGE_CURVE ( 'NONE', #190, #286, #150, .T. ) ;
#75 = DIRECTION ( 'NONE',  ( 1.000000000000000000, 0.000000000000000000, 0.000000000000000000 ) ) ;
#76 = EDGE_CURVE ( 'NONE', #214, #25, #193, .T. ) ;
#77 = FACE_OUTER_BOUND ( 'NONE', #68, .T. ) ;
#78 = EDGE_CURVE ( 'NONE', #222, #258, #209, .T. ) ;
#79 = DIRECTION ( 'NONE',  ( -1.000000000000000000, 0.000000000000000000, 0.000000000000000000 ) ) ;
#80 = DIRECTION ( 'NONE',  ( -0.000000000000000000, -0.000000000000000000, -1.000000000000000000 ) ) ;
#81 = CARTESIAN_POINT ( 'NONE',  ( -0.7500000000000001110, 0.000000000000000000, 1.700000000000007061 ) ) ;
#82 = PRODUCT_DEFINITION_FORMATION_WITH_SPECIFIED_SOURCE ( 'LIBOVOLNÝ', '', #293, .NOT_KNOWN. ) ;
#83 = AXIS2_PLACEMENT_3D ( 'NONE', #34, #250, #55 ) ;
#84 = CARTESIAN_POINT ( 'NONE',  ( 0.000000000000000000, 0.000000000000000000, 1.500000000000000000 ) ) ;
#85 = ADVANCED_FACE ( 'NONE', ( #71 ), #49, .T. ) ;
#86 =( LENGTH_UNIT ( ) NAMED_UNIT ( * ) SI_UNIT ( .MILLI., .METRE. ) );
#87 = PRODUCT_DEFINITION ( 'NEZNÁMÝ', '', #82, #162 ) ;
#88 = ORIENTED_EDGE ( 'NONE', *, *, #247, .T. ) ;
#89 = CARTESIAN_POINT ( 'NONE',  ( 0.000000000000000000, 0.000000000000000000, 0.000000000000000000 ) ) ;
#90 = EDGE_LOOP ( 'NONE', ( #232, #160, #119, #65 ) ) ;
#91 = COORDINATED_UNIVERSAL_TIME_OFFSET ( 1, 0, .AHEAD. ) ;
#92 = CC_DESIGN_DATE_AND_TIME_ASSIGNMENT ( #181, #163, ( #87 ) ) ;
#93 = EDGE_LOOP ( 'NONE', ( #168, #283, #211, #234 ) ) ;
#94 = COORDINATED_UNIVERSAL_TIME_OFFSET ( 1, 0, .AHEAD. ) ;
#95 = ORIENTED_EDGE ( 'NONE', *, *, #76, .F. ) ;
#96 = AXIS2_PLACEMENT_3D ( 'NONE', #124, #46, #75 ) ;
#97 = VERTEX_POINT ( 'NONE', #29 ) ;
#98 = EDGE_CURVE ( 'NONE', #97, #258, #290, .T. ) ;
#99 = DIRECTION ( 'NONE',  ( 0.000000000000000000, 0.000000000000000000, 1.000000000000000000 ) ) ;
#100 = EDGE_CURVE ( 'NONE', #183, #190, #18, .T. ) ;
#101 = ORIENTED_EDGE ( 'NONE', *, *, #78, .F. ) ;
#102 = PLANE ( 'NONE',  #304 ) ;
#103 = AXIS2_PLACEMENT_3D ( 'NONE', #52, #224, #156 ) ;
#104 = DIRECTION ( 'NONE',  ( 0.000000000000000000, 0.000000000000000000, 1.000000000000000000 ) ) ;
#105 = ADVANCED_FACE ( 'NONE', ( #241, #287 ), #107, .T. ) ;
#106 = PRODUCT_DEFINITION_SHAPE ( 'NONE', 'NONE',  #87 ) ;
#107 = PLANE ( 'NONE',  #56 ) ;
#108 = DIRECTION ( 'NONE',  ( 1.000000000000000000, 0.000000000000000000, 0.000000000000000000 ) ) ;
#109 = AXIS2_PLACEMENT_3D ( 'NONE', #89, #206, #67 ) ;
#110 = DIRECTION ( 'NONE',  ( 1.000000000000000000, 0.000000000000000000, 0.000000000000000000 ) ) ;
#111 = DIRECTION ( 'NONE',  ( 0.000000000000000000, 0.000000000000000000, 1.000000000000000000 ) ) ;
#112 = CARTESIAN_POINT ( 'NONE',  ( 0.000000000000000000, 0.000000000000000000, 0.000000000000000000 ) ) ;
#113 = COORDINATED_UNIVERSAL_TIME_OFFSET ( 1, 0, .AHEAD. ) ;
#114 = APPROVAL_STATUS ( 'not_yet_approved' ) ;
#115 = AXIS2_PLACEMENT_3D ( 'NONE', #146, #245, #31 ) ;
#116 = ORIENTED_EDGE ( 'NONE', *, *, #23, .T. ) ;
#117 = TOROIDAL_SURFACE ( 'NONE', #83, 0.9500000000000000666, 0.2000000000000000111 ) ;
#118 = PERSON_AND_ORGANIZATION_ROLE ( 'creator' ) ;
#119 = ORIENTED_EDGE ( 'NONE', *, *, #74, .T. ) ;
#120 = ADVANCED_FACE ( 'NONE', ( #298 ), #8, .T. ) ;
#121 = ORIENTED_EDGE ( 'NONE', *, *, #133, .F. ) ;
#122 = VECTOR ( 'NONE', #47, 1000.000000000000000 ) ;
#123 = LOCAL_TIME ( 12, 23, 0.000000000000000000, #91 ) ;
#124 = CARTESIAN_POINT ( 'NONE',  ( 0.000000000000000000, 0.000000000000000000, 0.000000000000000000 ) ) ;
#125 = PRODUCT_RELATED_PRODUCT_CATEGORY ( 'detail', '', ( #293 ) ) ;
#126 = AXIS2_PLACEMENT_3D ( 'NONE', #149, #104, #198 ) ;
#127 = CC_DESIGN_PERSON_AND_ORGANIZATION_ASSIGNMENT ( #136, #118, ( #82 ) ) ;
#128 = AXIS2_PLACEMENT_3D ( 'NONE', #12, #274, #154 ) ;
#129 = DIRECTION ( 'NONE',  ( 1.000000000000000000, 0.000000000000000000, 0.000000000000000000 ) ) ;
#130 = LINE ( 'NONE', #38, #291 ) ;
#131 = CARTESIAN_POINT ( 'NONE',  ( 0.7500000000000001110, 9.184850993605150903E-17, 161.5000000000000000 ) ) ;
#132 = CYLINDRICAL_SURFACE ( 'NONE', #256, 0.7500000000000001110 ) ;
#133 = EDGE_CURVE ( 'NONE', #286, #222, #249, .T. ) ;
#134 = DIRECTION ( 'NONE',  ( 0.000000000000000000, 0.000000000000000000, 1.000000000000000000 ) ) ;
#135 = CARTESIAN_POINT ( 'NONE',  ( 0.000000000000000000, 0.000000000000000000, 1.500000000000000000 ) ) ;
#136 = PERSON_AND_ORGANIZATION ( #288, #147 ) ;
#137 = CC_DESIGN_PERSON_AND_ORGANIZATION_ASSIGNMENT ( #215, #212, ( #82 ) ) ;
#138 = DATE_AND_TIME ( #42, #123 ) ;
#139 = ORIENTED_EDGE ( 'NONE', *, *, #76, .T. ) ;
#140 = AXIS2_PLACEMENT_3D ( 'NONE', #151, #170, #243 ) ;
#141 = CC_DESIGN_DATE_AND_TIME_ASSIGNMENT ( #138, #231, ( #202 ) ) ;
#142 = AXIS2_PLACEMENT_3D ( 'NONE', #37, #134, #273 ) ;
#143 =( NAMED_UNIT ( * ) PLANE_ANGLE_UNIT ( ) SI_UNIT ( $, .RADIAN. ) );
#144 = EDGE_LOOP ( 'NONE', ( #45, #2, #66, #305 ) ) ;
#145 = ORIENTED_EDGE ( 'NONE', *, *, #268, .F. ) ;
#146 = CARTESIAN_POINT ( 'NONE',  ( 0.9500000000000000666, 0.000000000000000000, 1.700000000000007061 ) ) ;
#147 = ORGANIZATION ( 'NEURÈENÝ', 'NEURÈENÝ', '' ) ;
#148 = DIRECTION ( 'NONE',  ( 0.000000000000000000, 0.000000000000000000, 1.000000000000000000 ) ) ;
#149 = CARTESIAN_POINT ( 'NONE',  ( 0.000000000000000000, 0.000000000000000000, 161.5000000000000000 ) ) ;
#150 = LINE ( 'NONE', #270, #26 ) ;
#151 = CARTESIAN_POINT ( 'NONE',  ( 0.000000000000000000, 0.000000000000000000, 1.500000000000000000 ) ) ;
#152 = AXIS2_PLACEMENT_3D ( 'NONE', #175, #57, #272 ) ;
#153 = CARTESIAN_POINT ( 'NONE',  ( -0.9500000000000000666, 1.163414459189985682E-16, 1.500000000000003553 ) ) ;
#154 = DIRECTION ( 'NONE',  ( -1.000000000000000000, 0.000000000000000000, 0.000000000000000000 ) ) ;
#155 = FACE_OUTER_BOUND ( 'NONE', #62, .T. ) ;
#156 = DIRECTION ( 'NONE',  ( 1.000000000000000000, 0.000000000000000000, -0.000000000000000000 ) ) ;
#157 = CARTESIAN_POINT ( 'NONE',  ( -0.7500000000000001110, 0.000000000000000000, 161.5000000000000000 ) ) ;
#158 = CIRCLE ( 'NONE', #126, 0.7500000000000001110 ) ;
#159 = APPROVAL_STATUS ( 'not_yet_approved' ) ;
#160 = ORIENTED_EDGE ( 'NONE', *, *, #32, .F. ) ;
#161 = CC_DESIGN_APPROVAL ( #227, ( #202 ) ) ;
#162 = DESIGN_CONTEXT ( 'detailed design', #54, 'design' ) ;
#163 = DATE_TIME_ROLE ( 'creation_date' ) ;
#164 = ORIENTED_EDGE ( 'NONE', *, *, #23, .F. ) ;
#165 = COORDINATED_UNIVERSAL_TIME_OFFSET ( 1, 0, .AHEAD. ) ;
#166 = ORIENTED_EDGE ( 'NONE', *, *, #33, .F. ) ;
#167 = AXIS2_PLACEMENT_3D ( 'NONE', #112, #111, #110 ) ;
#168 = ORIENTED_EDGE ( 'NONE', *, *, #100, .F. ) ;
#169 = FACE_OUTER_BOUND ( 'NONE', #64, .T. ) ;
#170 = DIRECTION ( 'NONE',  ( -0.000000000000000000, -0.000000000000000000, -1.000000000000000000 ) ) ;
#171 = TOROIDAL_SURFACE ( 'NONE', #220, 0.9500000000000000666, 0.2000000000000000111 ) ;
#172 = DIRECTION ( 'NONE',  ( 1.000000000000000000, 0.000000000000000000, 0.000000000000000000 ) ) ;
#173 = CARTESIAN_POINT ( 'NONE',  ( 0.000000000000000000, 0.000000000000000000, 1.500000000000000000 ) ) ;
#174 = ORIENTED_EDGE ( 'NONE', *, *, #32, .T. ) ;
#175 = CARTESIAN_POINT ( 'NONE',  ( 0.000000000000000000, 0.000000000000000000, 1.700000000000007061 ) ) ;
#176 = EDGE_CURVE ( 'NONE', #97, #286, #244, .T. ) ;
#177 = CARTESIAN_POINT ( 'NONE',  ( 1.500000000000000222, 1.836970198721030181E-16, 0.000000000000000000 ) ) ;
#178 = FACE_OUTER_BOUND ( 'NONE', #144, .T. ) ;
#179 = CARTESIAN_POINT ( 'NONE',  ( 0.000000000000000000, 0.000000000000000000, 1.500000000000000000 ) ) ;
#180 =( GEOMETRIC_REPRESENTATION_CONTEXT ( 3 ) GLOBAL_UNCERTAINTY_ASSIGNED_CONTEXT ( ( #253 ) ) GLOBAL_UNIT_ASSIGNED_CONTEXT ( ( #86, #143, #40 ) ) REPRESENTATION_CONTEXT ( 'NONE', 'WORKASPACE' ) );
#181 = DATE_AND_TIME ( #282, #48 ) ;
#182 = PERSON_AND_ORGANIZATION ( #288, #147 ) ;
#183 = VERTEX_POINT ( 'NONE', #131 ) ;
#184 = LOCAL_TIME ( 12, 23, 0.000000000000000000, #113 ) ;
#185 = DATE_AND_TIME ( #210, #58 ) ;
#186 = COORDINATED_UNIVERSAL_TIME_OFFSET ( 1, 0, .AHEAD. ) ;
#187 = VERTEX_POINT ( 'NONE', #295 ) ;
#188 = EDGE_CURVE ( 'NONE', #286, #97, #242, .T. ) ;
#189 = CALENDAR_DATE ( 2022, 20, 6 ) ;
#190 = VERTEX_POINT ( 'NONE', #157 ) ;
#191 = CC_DESIGN_PERSON_AND_ORGANIZATION_ASSIGNMENT ( #182, #279, ( #293 ) ) ;
#192 = APPROVAL_PERSON_ORGANIZATION ( #261, #203, #229 ) ;
#193 = LINE ( 'NONE', #73, #122 ) ;
#194 = DIRECTION ( 'NONE',  ( 0.000000000000000000, 0.000000000000000000, 1.000000000000000000 ) ) ;
#195 = AXIS2_PLACEMENT_3D ( 'NONE', #266, #148, #7 ) ;
#196 = CC_DESIGN_APPROVAL ( #236, ( #82 ) ) ;
#197 = CARTESIAN_POINT ( 'NONE',  ( 0.000000000000000000, 0.000000000000000000, 0.000000000000000000 ) ) ;
#198 = DIRECTION ( 'NONE',  ( 1.000000000000000000, 0.000000000000000000, 0.000000000000000000 ) ) ;
#199 = EDGE_CURVE ( 'NONE', #258, #222, #51, .T. ) ;
#200 = DIRECTION ( 'NONE',  ( -0.000000000000000000, -0.000000000000000000, -1.000000000000000000 ) ) ;
#201 = DIRECTION ( 'NONE',  ( 1.224646799147353207E-16, 1.000000000000000000, -0.000000000000000000 ) ) ;
#202 = SECURITY_CLASSIFICATION ( '', '', #257 ) ;
#203 = APPROVAL ( #22, 'NEURÈENÝ' ) ;
#204 = CARTESIAN_POINT ( 'NONE',  ( 0.000000000000000000, 0.000000000000000000, 161.5000000000000000 ) ) ;
#205 = AXIS2_PLACEMENT_3D ( 'NONE', #6, #194, #172 ) ;
#206 = DIRECTION ( 'NONE',  ( 0.000000000000000000, 0.000000000000000000, 1.000000000000000000 ) ) ;
#207 = APPLICATION_PROTOCOL_DEFINITION ( 'international standard', 'config_control_design', 1994, #41 ) ;
#208 = ORIENTED_EDGE ( 'NONE', *, *, #268, .T. ) ;
#209 = CIRCLE ( 'NONE', #275, 0.9500000000000000666 ) ;
#210 = CALENDAR_DATE ( 2022, 20, 6 ) ;
#211 = ORIENTED_EDGE ( 'NONE', *, *, #176, .T. ) ;
#212 = PERSON_AND_ORGANIZATION_ROLE ( 'design_supplier' ) ;
#213 = ADVANCED_FACE ( 'NONE', ( #155 ), #59, .T. ) ;
#214 = VERTEX_POINT ( 'NONE', #15 ) ;
#215 = PERSON_AND_ORGANIZATION ( #288, #147 ) ;
#216 = ORIENTED_EDGE ( 'NONE', *, *, #33, .T. ) ;
#217 = ORIENTED_EDGE ( 'NONE', *, *, #98, .T. ) ;
#218 = LOCAL_TIME ( 12, 23, 0.000000000000000000, #165 ) ;
#219 = ADVANCED_FACE ( 'NONE', ( #248 ), #132, .T. ) ;
#220 = AXIS2_PLACEMENT_3D ( 'NONE', #226, #278, #301 ) ;
#221 = LINE ( 'NONE', #294, #252 ) ;
#222 = VERTEX_POINT ( 'NONE', #153 ) ;
#223 = CARTESIAN_POINT ( 'NONE',  ( 0.9500000000000000666, 0.000000000000000000, 1.500000000000003553 ) ) ;
#224 = DIRECTION ( 'NONE',  ( 0.000000000000000000, 0.000000000000000000, 1.000000000000000000 ) ) ;
#225 = ADVANCED_FACE ( 'NONE', ( #77 ), #117, .F. ) ;
#226 = CARTESIAN_POINT ( 'NONE',  ( 0.000000000000000000, 0.000000000000000000, 1.700000000000007061 ) ) ;
#227 = APPROVAL ( #114, 'NEURÈENÝ' ) ;
#228 = CLOSED_SHELL ( 'NONE', ( #271, #120, #85, #300, #105, #69, #219, #213, #225 ) ) ;
#229 = APPROVAL_ROLE ( '' ) ;
#230 = ORIENTED_EDGE ( 'NONE', *, *, #199, .T. ) ;
#231 = DATE_TIME_ROLE ( 'classification_date' ) ;
#232 = ORIENTED_EDGE ( 'NONE', *, *, #43, .F. ) ;
#233 = PERSON_AND_ORGANIZATION ( #288, #147 ) ;
#234 = ORIENTED_EDGE ( 'NONE', *, *, #74, .F. ) ;
#235 = CC_DESIGN_SECURITY_CLASSIFICATION ( #202, ( #82 ) ) ;
#236 = APPROVAL ( #159, 'NEURÈENÝ' ) ;
#237 = PERSON_AND_ORGANIZATION_ROLE ( 'classification_officer' ) ;
#238 = ORIENTED_EDGE ( 'NONE', *, *, #78, .T. ) ;
#239 = APPLICATION_PROTOCOL_DEFINITION ( 'international standard', 'config_control_design', 1994, #54 ) ;
#240 = ORIENTED_EDGE ( 'NONE', *, *, #176, .F. ) ;
#241 = FACE_BOUND ( 'NONE', #5, .T. ) ;
#242 = CIRCLE ( 'NONE', #142, 0.7500000000000001110 ) ;
#243 = DIRECTION ( 'NONE',  ( -1.000000000000000000, 0.000000000000000000, 0.000000000000000000 ) ) ;
#244 = CIRCLE ( 'NONE', #152, 0.7500000000000001110 ) ;
#245 = DIRECTION ( 'NONE',  ( 0.000000000000000000, -1.000000000000000000, 0.000000000000000000 ) ) ;
#246 = DIRECTION ( 'NONE',  ( -1.000000000000000000, 0.000000000000000000, 0.000000000000000000 ) ) ;
#247 = EDGE_CURVE ( 'NONE', #187, #303, #130, .T. ) ;
#248 = FACE_OUTER_BOUND ( 'NONE', #90, .T. ) ;
#249 = CIRCLE ( 'NONE', #21, 0.2000000000000000944 ) ;
#250 = DIRECTION ( 'NONE',  ( 0.000000000000000000, 0.000000000000000000, 1.000000000000000000 ) ) ;
#251 = CARTESIAN_POINT ( 'NONE',  ( -0.9500000000000000666, 1.163414459189985682E-16, 1.700000000000007061 ) ) ;
#252 = VECTOR ( 'NONE', #289, 1000.000000000000000 ) ;
#253 = UNCERTAINTY_MEASURE_WITH_UNIT (LENGTH_MEASURE( 1.000000000000000082E-05 ), #86, 'distance_accuracy_value', 'NONE');
#254 = CALENDAR_DATE ( 2022, 20, 6 ) ;
#255 = EDGE_LOOP ( 'NONE', ( #16, #116 ) ) ;
#256 = AXIS2_PLACEMENT_3D ( 'NONE', #204, #80, #246 ) ;
#257 = SECURITY_CLASSIFICATION_LEVEL ( 'unclassified' ) ;
#258 = VERTEX_POINT ( 'NONE', #223 ) ;
#259 = DATE_AND_TIME ( #189, #218 ) ;
#260 = ORIENTED_EDGE ( 'NONE', *, *, #284, .F. ) ;
#261 = PERSON_AND_ORGANIZATION ( #288, #147 ) ;
#262 = EDGE_LOOP ( 'NONE', ( #20, #260, #139, #208 ) ) ;
#263 = EDGE_LOOP ( 'NONE', ( #164, #88, #216, #95 ) ) ;
#264 = DIRECTION ( 'NONE',  ( 0.000000000000000000, 0.000000000000000000, 1.000000000000000000 ) ) ;
#265 = CIRCLE ( 'NONE', #205, 1.500000000000000222 ) ;
#266 = CARTESIAN_POINT ( 'NONE',  ( 0.000000000000000000, 0.000000000000000000, 161.5000000000000000 ) ) ;
#267 = DIRECTION ( 'NONE',  ( 1.000000000000000000, 0.000000000000000000, -0.000000000000000000 ) ) ;
#268 = EDGE_CURVE ( 'NONE', #25, #303, #14, .T. ) ;
#269 = DIRECTION ( 'NONE',  ( -0.000000000000000000, -0.000000000000000000, -1.000000000000000000 ) ) ;
#270 = CARTESIAN_POINT ( 'NONE',  ( -0.7500000000000001110, 0.000000000000000000, 161.5000000000000000 ) ) ;
#271 = ADVANCED_FACE ( 'NONE', ( #178 ), #171, .F. ) ;
#272 = DIRECTION ( 'NONE',  ( 1.000000000000000000, 0.000000000000000000, 0.000000000000000000 ) ) ;
#273 = DIRECTION ( 'NONE',  ( 1.000000000000000000, 0.000000000000000000, 0.000000000000000000 ) ) ;
#274 = DIRECTION ( 'NONE',  ( -0.000000000000000000, -0.000000000000000000, -1.000000000000000000 ) ) ;
#275 = AXIS2_PLACEMENT_3D ( 'NONE', #173, #269, #129 ) ;
#276 = DIRECTION ( 'NONE',  ( -0.000000000000000000, -0.000000000000000000, -1.000000000000000000 ) ) ;
#277 = AXIS2_PLACEMENT_3D ( 'NONE', #84, #299, #108 ) ;
#278 = DIRECTION ( 'NONE',  ( 0.000000000000000000, 0.000000000000000000, 1.000000000000000000 ) ) ;
#279 = PERSON_AND_ORGANIZATION_ROLE ( 'design_owner' ) ;
#280 = ORIENTED_EDGE ( 'NONE', *, *, #100, .T. ) ;
#281 = MECHANICAL_CONTEXT ( 'NONE', #41, 'mechanical' ) ;
#282 = CALENDAR_DATE ( 2022, 20, 6 ) ;
#283 = ORIENTED_EDGE ( 'NONE', *, *, #43, .T. ) ;
#284 = EDGE_CURVE ( 'NONE', #214, #187, #30, .T. ) ;
#285 = APPROVAL_ROLE ( '' ) ;
#286 = VERTEX_POINT ( 'NONE', #81 ) ;
#287 = FACE_OUTER_BOUND ( 'NONE', #255, .T. ) ;
#288 = PERSON ( 'NEURÈENÝ', 'NEURÈENÝ', 'NEURÈENÝ', ('NEURÈENÝ'), ('NEURÈENÝ'), ('NEURÈENÝ') ) ;
#289 = DIRECTION ( 'NONE',  ( -0.000000000000000000, -0.000000000000000000, -1.000000000000000000 ) ) ;
#290 = CIRCLE ( 'NONE', #115, 0.2000000000000000944 ) ;
#291 = VECTOR ( 'NONE', #10, 1000.000000000000000 ) ;
#292 = DIRECTION ( 'NONE',  ( -0.000000000000000000, -0.000000000000000000, -1.000000000000000000 ) ) ;
#293 = PRODUCT ( '93f1', '93f1', '', ( #281 ) ) ;
#294 = CARTESIAN_POINT ( 'NONE',  ( 0.7500000000000001110, 9.184850993605150903E-17, 161.5000000000000000 ) ) ;
#295 = CARTESIAN_POINT ( 'NONE',  ( 1.500000000000000222, 1.836970198721030181E-16, 1.500000000000000000 ) ) ;
#296 = APPROVAL_PERSON_ORGANIZATION ( #17, #227, #307 ) ;
#297 = CYLINDRICAL_SURFACE ( 'NONE', #36, 1.500000000000000222 ) ;
#298 = FACE_OUTER_BOUND ( 'NONE', #93, .T. ) ;
#299 = DIRECTION ( 'NONE',  ( 0.000000000000000000, 0.000000000000000000, 1.000000000000000000 ) ) ;
#300 = ADVANCED_FACE ( 'NONE', ( #39 ), #297, .T. ) ;
#301 = DIRECTION ( 'NONE',  ( 1.000000000000000000, 0.000000000000000000, 0.000000000000000000 ) ) ;
#302 = APPROVAL_DATE_TIME ( #44, #203 ) ;
#303 = VERTEX_POINT ( 'NONE', #177 ) ;
#304 = AXIS2_PLACEMENT_3D ( 'NONE', #197, #99, #267 ) ;
#305 = ORIENTED_EDGE ( 'NONE', *, *, #98, .F. ) ;
#306 = PERSON_AND_ORGANIZATION ( #288, #147 ) ;
#307 = APPROVAL_ROLE ( '' ) ;
ENDSEC;
END-ISO-10303-21;
