ISO-10303-21;
HEADER;
FILE_DESCRIPTION (( 'STEP AP203' ),
    '1' );
FILE_NAME ('ea91.STEP',
    '2022-06-20T09:37:46',
    ( '' ),
    ( '' ),
    'SwSTEP 2.0',
    'SolidWorks 2019',
    '' );
FILE_SCHEMA (( 'CONFIG_CONTROL_DESIGN' ));
ENDSEC;

DATA;
#1 = CARTESIAN_POINT ( 'NONE',  ( 0.000000000000000000, 0.000000000000000000, 130.0000000000000000 ) ) ;
#2 = CARTESIAN_POINT ( 'NONE',  ( 8.000000000000000000, 9.797174393178825657E-16, 5.000000000000000000 ) ) ;
#3 = ADVANCED_BREP_SHAPE_REPRESENTATION ( 'ea91', ( #240, #293 ), #16 ) ;
#4 = DIRECTION ( 'NONE',  ( 1.000000000000000000, 0.000000000000000000, 0.000000000000000000 ) ) ;
#5 = AXIS2_PLACEMENT_3D ( 'NONE', #19, #118, #83 ) ;
#6 = CIRCLE ( 'NONE', #154, 0.1999999999999996503 ) ;
#7 = DIRECTION ( 'NONE',  ( 0.000000000000000000, 0.000000000000000000, 1.000000000000000000 ) ) ;
#8 = PERSON_AND_ORGANIZATION ( #204, #64 ) ;
#9 = ORIENTED_EDGE ( 'NONE', *, *, #79, .F. ) ;
#10 = SHAPE_DEFINITION_REPRESENTATION ( #112, #3 ) ;
#11 = DIRECTION ( 'NONE',  ( -0.000000000000000000, -0.000000000000000000, -1.000000000000000000 ) ) ;
#12 = ORIENTED_EDGE ( 'NONE', *, *, #279, .F. ) ;
#13 = ADVANCED_FACE ( 'NONE', ( #212 ), #62, .F. ) ;
#14 = ORIENTED_EDGE ( 'NONE', *, *, #235, .T. ) ;
#15 = CIRCLE ( 'NONE', #190, 0.1999999999999996503 ) ;
#16 =( GEOMETRIC_REPRESENTATION_CONTEXT ( 3 ) GLOBAL_UNCERTAINTY_ASSIGNED_CONTEXT ( ( #140 ) ) GLOBAL_UNIT_ASSIGNED_CONTEXT ( ( #44, #47, #242 ) ) REPRESENTATION_CONTEXT ( 'NONE', 'WORKASPACE' ) );
#17 = DIRECTION ( 'NONE',  ( 0.000000000000000000, -1.000000000000000000, 0.000000000000000000 ) ) ;
#18 = DIRECTION ( 'NONE',  ( 1.000000000000000000, 0.000000000000000000, 0.000000000000000000 ) ) ;
#19 = CARTESIAN_POINT ( 'NONE',  ( 0.000000000000000000, 0.000000000000000000, 5.000000000000000000 ) ) ;
#20 = ORIENTED_EDGE ( 'NONE', *, *, #166, .F. ) ;
#21 = EDGE_CURVE ( 'NONE', #133, #107, #300, .T. ) ;
#22 = AXIS2_PLACEMENT_3D ( 'NONE', #270, #200, #203 ) ;
#23 = LOCAL_TIME ( 11, 37, 46.00000000000000000, #295 ) ;
#24 = DIRECTION ( 'NONE',  ( -0.000000000000000000, -0.000000000000000000, -1.000000000000000000 ) ) ;
#25 = CARTESIAN_POINT ( 'NONE',  ( -8.000000000000000000, 0.000000000000000000, 5.000000000000000000 ) ) ;
#26 = AXIS2_PLACEMENT_3D ( 'NONE', #180, #59, #177 ) ;
#27 = COORDINATED_UNIVERSAL_TIME_OFFSET ( 1, 0, .AHEAD. ) ;
#28 = EDGE_LOOP ( 'NONE', ( #178, #51, #159, #137 ) ) ;
#29 = DATE_TIME_ROLE ( 'creation_date' ) ;
#30 = ADVANCED_FACE ( 'NONE', ( #60 ), #153, .T. ) ;
#31 = APPROVAL_STATUS ( 'not_yet_approved' ) ;
#32 = CARTESIAN_POINT ( 'NONE',  ( 0.000000000000000000, 0.000000000000000000, 5.199999999999996625 ) ) ;
#33 = CARTESIAN_POINT ( 'NONE',  ( 0.000000000000000000, 0.000000000000000000, 0.000000000000000000 ) ) ;
#34 = AXIS2_PLACEMENT_3D ( 'NONE', #33, #162, #255 ) ;
#35 = CARTESIAN_POINT ( 'NONE',  ( 0.000000000000000000, 0.000000000000000000, 130.0000000000000000 ) ) ;
#36 = CC_DESIGN_PERSON_AND_ORGANIZATION_ASSIGNMENT ( #53, #179, ( #101 ) ) ;
#37 = DIRECTION ( 'NONE',  ( -0.000000000000000000, -0.000000000000000000, -1.000000000000000000 ) ) ;
#38 = LINE ( 'NONE', #2, #266 ) ;
#39 = CARTESIAN_POINT ( 'NONE',  ( -5.450000000000001066, 6.674325055353076224E-16, 5.199999999999996625 ) ) ;
#40 = ORIENTED_EDGE ( 'NONE', *, *, #54, .T. ) ;
#41 = FACE_OUTER_BOUND ( 'NONE', #256, .T. ) ;
#42 = DIRECTION ( 'NONE',  ( 1.000000000000000000, 0.000000000000000000, 0.000000000000000000 ) ) ;
#43 = CC_DESIGN_DATE_AND_TIME_ASSIGNMENT ( #196, #222, ( #101 ) ) ;
#44 =( LENGTH_UNIT ( ) NAMED_UNIT ( * ) SI_UNIT ( .MILLI., .METRE. ) );
#45 = CARTESIAN_POINT ( 'NONE',  ( 0.000000000000000000, 0.000000000000000000, 130.0000000000000000 ) ) ;
#46 = ADVANCED_FACE ( 'NONE', ( #283 ), #276, .F. ) ;
#47 =( NAMED_UNIT ( * ) PLANE_ANGLE_UNIT ( ) SI_UNIT ( $, .RADIAN. ) );
#48 = PLANE ( 'NONE',  #193 ) ;
#49 = CALENDAR_DATE ( 2022, 20, 6 ) ;
#50 = DIRECTION ( 'NONE',  ( -0.000000000000000000, -0.000000000000000000, -1.000000000000000000 ) ) ;
#51 = ORIENTED_EDGE ( 'NONE', *, *, #174, .F. ) ;
#52 = CC_DESIGN_APPROVAL ( #170, ( #182 ) ) ;
#53 = PERSON_AND_ORGANIZATION ( #204, #64 ) ;
#54 = EDGE_CURVE ( 'NONE', #86, #234, #275, .T. ) ;
#55 = CARTESIAN_POINT ( 'NONE',  ( 0.000000000000000000, 0.000000000000000000, 0.000000000000000000 ) ) ;
#56 = CALENDAR_DATE ( 2022, 20, 6 ) ;
#57 = CARTESIAN_POINT ( 'NONE',  ( 0.000000000000000000, 0.000000000000000000, 5.000000000000000000 ) ) ;
#58 = DATE_AND_TIME ( #56, #282 ) ;
#59 = DIRECTION ( 'NONE',  ( 0.000000000000000000, 0.000000000000000000, 1.000000000000000000 ) ) ;
#60 = FACE_OUTER_BOUND ( 'NONE', #221, .T. ) ;
#61 = EDGE_CURVE ( 'NONE', #89, #86, #38, .T. ) ;
#62 = TOROIDAL_SURFACE ( 'NONE', #169, 5.450000000000001066, 0.2000000000000000111 ) ;
#63 = DATE_AND_TIME ( #49, #191 ) ;
#64 = ORGANIZATION ( 'NEURÈENÝ', 'NEURÈENÝ', '' ) ;
#65 = VECTOR ( 'NONE', #24, 1000.000000000000000 ) ;
#66 = LINE ( 'NONE', #156, #100 ) ;
#67 = CARTESIAN_POINT ( 'NONE',  ( 0.000000000000000000, 0.000000000000000000, 0.000000000000000000 ) ) ;
#68 = CARTESIAN_POINT ( 'NONE',  ( 0.000000000000000000, 0.000000000000000000, 5.199999999999996625 ) ) ;
#69 = DIRECTION ( 'NONE',  ( -0.000000000000000000, -0.000000000000000000, -1.000000000000000000 ) ) ;
#70 = ORIENTED_EDGE ( 'NONE', *, *, #174, .T. ) ;
#71 = CC_DESIGN_APPROVAL ( #244, ( #101 ) ) ;
#72 = DIRECTION ( 'NONE',  ( 0.000000000000000000, 0.000000000000000000, 1.000000000000000000 ) ) ;
#73 = DIRECTION ( 'NONE',  ( 1.000000000000000000, 0.000000000000000000, -0.000000000000000000 ) ) ;
#74 = CC_DESIGN_PERSON_AND_ORGANIZATION_ASSIGNMENT ( #199, #243, ( #139 ) ) ;
#75 = EDGE_CURVE ( 'NONE', #131, #181, #246, .T. ) ;
#76 = CARTESIAN_POINT ( 'NONE',  ( -5.450000000000001066, 6.674325055353076224E-16, 4.999999999999998224 ) ) ;
#77 = ORIENTED_EDGE ( 'NONE', *, *, #79, .T. ) ;
#78 = PERSON_AND_ORGANIZATION ( #204, #64 ) ;
#79 = EDGE_CURVE ( 'NONE', #234, #86, #163, .T. ) ;
#80 = PERSON_AND_ORGANIZATION_ROLE ( 'design_supplier' ) ;
#81 = LOCAL_TIME ( 11, 37, 46.00000000000000000, #290 ) ;
#82 = DIRECTION ( 'NONE',  ( 1.000000000000000000, 0.000000000000000000, 0.000000000000000000 ) ) ;
#83 = DIRECTION ( 'NONE',  ( -1.000000000000000000, 0.000000000000000000, 0.000000000000000000 ) ) ;
#84 = DIRECTION ( 'NONE',  ( 0.000000000000000000, 0.000000000000000000, 1.000000000000000000 ) ) ;
#85 = ADVANCED_FACE ( 'NONE', ( #285 ), #48, .T. ) ;
#86 = VERTEX_POINT ( 'NONE', #262 ) ;
#87 = DIRECTION ( 'NONE',  ( 0.000000000000000000, 0.000000000000000000, 1.000000000000000000 ) ) ;
#88 = CARTESIAN_POINT ( 'NONE',  ( -8.000000000000000000, 0.000000000000000000, 5.000000000000000000 ) ) ;
#89 = VERTEX_POINT ( 'NONE', #195 ) ;
#90 = CIRCLE ( 'NONE', #26, 8.000000000000000000 ) ;
#91 = CIRCLE ( 'NONE', #233, 5.250000000000000888 ) ;
#92 = DIRECTION ( 'NONE',  ( 0.000000000000000000, 0.000000000000000000, 1.000000000000000000 ) ) ;
#93 = EDGE_LOOP ( 'NONE', ( #135, #299, #70, #301 ) ) ;
#94 = CARTESIAN_POINT ( 'NONE',  ( 0.000000000000000000, 0.000000000000000000, 5.000000000000000000 ) ) ;
#95 = ORIENTED_EDGE ( 'NONE', *, *, #220, .F. ) ;
#96 = EDGE_CURVE ( 'NONE', #232, #234, #141, .T. ) ;
#97 = ORIENTED_EDGE ( 'NONE', *, *, #302, .T. ) ;
#98 = CIRCLE ( 'NONE', #146, 5.450000000000001066 ) ;
#99 = CC_DESIGN_DATE_AND_TIME_ASSIGNMENT ( #63, #29, ( #182 ) ) ;
#100 = VECTOR ( 'NONE', #277, 1000.000000000000000 ) ;
#101 = SECURITY_CLASSIFICATION ( '', '', #289 ) ;
#102 = AXIS2_PLACEMENT_3D ( 'NONE', #57, #84, #254 ) ;
#103 = APPROVAL_PERSON_ORGANIZATION ( #150, #198, #265 ) ;
#104 = DATE_AND_TIME ( #127, #23 ) ;
#105 = COORDINATED_UNIVERSAL_TIME_OFFSET ( 1, 0, .AHEAD. ) ;
#106 = ORIENTED_EDGE ( 'NONE', *, *, #138, .T. ) ;
#107 = VERTEX_POINT ( 'NONE', #241 ) ;
#108 = DIRECTION ( 'NONE',  ( 0.000000000000000000, 0.000000000000000000, 1.000000000000000000 ) ) ;
#109 = CARTESIAN_POINT ( 'NONE',  ( 0.000000000000000000, 0.000000000000000000, 130.0000000000000000 ) ) ;
#110 = DIRECTION ( 'NONE',  ( -1.000000000000000000, 0.000000000000000000, 0.000000000000000000 ) ) ;
#111 = EDGE_LOOP ( 'NONE', ( #188, #97 ) ) ;
#112 = PRODUCT_DEFINITION_SHAPE ( 'NONE', 'NONE',  #182 ) ;
#113 = CARTESIAN_POINT ( 'NONE',  ( -8.000000000000000000, 0.000000000000000000, 0.000000000000000000 ) ) ;
#114 = VERTEX_POINT ( 'NONE', #145 ) ;
#115 = CIRCLE ( 'NONE', #22, 5.250000000000000888 ) ;
#116 = DIRECTION ( 'NONE',  ( -1.000000000000000000, 1.224646799147353454E-16, 0.000000000000000000 ) ) ;
#117 = EDGE_CURVE ( 'NONE', #181, #294, #245, .T. ) ;
#118 = DIRECTION ( 'NONE',  ( -0.000000000000000000, -0.000000000000000000, -1.000000000000000000 ) ) ;
#119 = DIRECTION ( 'NONE',  ( 0.000000000000000000, 0.000000000000000000, 1.000000000000000000 ) ) ;
#120 = APPLICATION_PROTOCOL_DEFINITION ( 'international standard', 'config_control_design', 1994, #164 ) ;
#121 = CC_DESIGN_PERSON_AND_ORGANIZATION_ASSIGNMENT ( #8, #143, ( #182 ) ) ;
#122 = CARTESIAN_POINT ( 'NONE',  ( 5.250000000000000888, 6.429395695523605139E-16, 130.0000000000000000 ) ) ;
#123 = CALENDAR_DATE ( 2022, 20, 6 ) ;
#124 = PRODUCT ( 'ea91', 'ea91', '', ( #173 ) ) ;
#125 = CARTESIAN_POINT ( 'NONE',  ( -5.250000000000000888, 0.000000000000000000, 130.0000000000000000 ) ) ;
#126 = APPROVAL_DATE_TIME ( #226, #198 ) ;
#127 = CALENDAR_DATE ( 2022, 20, 6 ) ;
#128 = ORIENTED_EDGE ( 'NONE', *, *, #96, .T. ) ;
#129 = VECTOR ( 'NONE', #50, 1000.000000000000000 ) ;
#130 = DIRECTION ( 'NONE',  ( 1.000000000000000000, 0.000000000000000000, 0.000000000000000000 ) ) ;
#131 = VERTEX_POINT ( 'NONE', #125 ) ;
#132 = DIRECTION ( 'NONE',  ( -1.000000000000000000, 0.000000000000000000, 0.000000000000000000 ) ) ;
#133 = VERTEX_POINT ( 'NONE', #76 ) ;
#134 = DIRECTION ( 'NONE',  ( 0.000000000000000000, 0.000000000000000000, 1.000000000000000000 ) ) ;
#135 = ORIENTED_EDGE ( 'NONE', *, *, #302, .F. ) ;
#136 = CYLINDRICAL_SURFACE ( 'NONE', #5, 8.000000000000000000 ) ;
#137 = ORIENTED_EDGE ( 'NONE', *, *, #21, .F. ) ;
#138 = EDGE_CURVE ( 'NONE', #232, #89, #263, .T. ) ;
#139 = PRODUCT_DEFINITION_FORMATION_WITH_SPECIFIED_SOURCE ( 'LIBOVOLNÝ', '', #124, .NOT_KNOWN. ) ;
#140 = UNCERTAINTY_MEASURE_WITH_UNIT (LENGTH_MEASURE( 1.000000000000000082E-05 ), #44, 'distance_accuracy_value', 'NONE');
#141 = LINE ( 'NONE', #25, #129 ) ;
#142 = EDGE_CURVE ( 'NONE', #114, #294, #284, .T. ) ;
#143 = PERSON_AND_ORGANIZATION_ROLE ( 'creator' ) ;
#144 = AXIS2_PLACEMENT_3D ( 'NONE', #186, #134, #274 ) ;
#145 = CARTESIAN_POINT ( 'NONE',  ( -5.250000000000000888, 0.000000000000000000, 5.199999999999996625 ) ) ;
#146 = AXIS2_PLACEMENT_3D ( 'NONE', #94, #69, #160 ) ;
#147 = PERSON_AND_ORGANIZATION ( #204, #64 ) ;
#148 = DIRECTION ( 'NONE',  ( 0.000000000000000000, 0.000000000000000000, 1.000000000000000000 ) ) ;
#149 = ORIENTED_EDGE ( 'NONE', *, *, #166, .T. ) ;
#150 = PERSON_AND_ORGANIZATION ( #204, #64 ) ;
#151 = FACE_OUTER_BOUND ( 'NONE', #28, .T. ) ;
#152 = PERSON_AND_ORGANIZATION ( #204, #64 ) ;
#153 = CYLINDRICAL_SURFACE ( 'NONE', #261, 5.250000000000000888 ) ;
#154 = AXIS2_PLACEMENT_3D ( 'NONE', #39, #303, #116 ) ;
#155 = APPROVAL_DATE_TIME ( #104, #244 ) ;
#156 = CARTESIAN_POINT ( 'NONE',  ( -5.250000000000000888, 0.000000000000000000, 130.0000000000000000 ) ) ;
#157 = CC_DESIGN_PERSON_AND_ORGANIZATION_ASSIGNMENT ( #250, #80, ( #139 ) ) ;
#158 = CYLINDRICAL_SURFACE ( 'NONE', #183, 8.000000000000000000 ) ;
#159 = ORIENTED_EDGE ( 'NONE', *, *, #220, .T. ) ;
#160 = DIRECTION ( 'NONE',  ( 1.000000000000000000, 0.000000000000000000, 0.000000000000000000 ) ) ;
#161 = DIRECTION ( 'NONE',  ( -0.000000000000000000, -0.000000000000000000, -1.000000000000000000 ) ) ;
#162 = DIRECTION ( 'NONE',  ( 0.000000000000000000, 0.000000000000000000, 1.000000000000000000 ) ) ;
#163 = CIRCLE ( 'NONE', #307, 8.000000000000000000 ) ;
#164 = APPLICATION_CONTEXT ( 'configuration controlled 3d designs of mechanical parts and assemblies' ) ;
#165 = CARTESIAN_POINT ( 'NONE',  ( 0.000000000000000000, 0.000000000000000000, 0.000000000000000000 ) ) ;
#166 = EDGE_CURVE ( 'NONE', #89, #232, #90, .T. ) ;
#167 = CARTESIAN_POINT ( 'NONE',  ( 0.000000000000000000, 0.000000000000000000, 130.0000000000000000 ) ) ;
#168 = CARTESIAN_POINT ( 'NONE',  ( 0.000000000000000000, 0.000000000000000000, 5.000000000000000000 ) ) ;
#169 = AXIS2_PLACEMENT_3D ( 'NONE', #68, #271, #18 ) ;
#170 = APPROVAL ( #172, 'NEURÈENÝ' ) ;
#171 = DIRECTION ( 'NONE',  ( 1.000000000000000000, 0.000000000000000000, 0.000000000000000000 ) ) ;
#172 = APPROVAL_STATUS ( 'not_yet_approved' ) ;
#173 = MECHANICAL_CONTEXT ( 'NONE', #164, 'mechanical' ) ;
#174 = EDGE_CURVE ( 'NONE', #294, #114, #115, .T. ) ;
#175 = CARTESIAN_POINT ( 'NONE',  ( 5.250000000000000888, 6.429395695523605139E-16, 5.199999999999996625 ) ) ;
#176 = ORIENTED_EDGE ( 'NONE', *, *, #117, .F. ) ;
#177 = DIRECTION ( 'NONE',  ( 1.000000000000000000, 0.000000000000000000, 0.000000000000000000 ) ) ;
#178 = ORIENTED_EDGE ( 'NONE', *, *, #268, .F. ) ;
#179 = PERSON_AND_ORGANIZATION_ROLE ( 'classification_officer' ) ;
#180 = CARTESIAN_POINT ( 'NONE',  ( 0.000000000000000000, 0.000000000000000000, 5.000000000000000000 ) ) ;
#181 = VERTEX_POINT ( 'NONE', #267 ) ;
#182 = PRODUCT_DEFINITION ( 'NEZNÁMÝ', '', #139, #216 ) ;
#183 = AXIS2_PLACEMENT_3D ( 'NONE', #280, #37, #132 ) ;
#184 = DIRECTION ( 'NONE',  ( 1.000000000000000000, 0.000000000000000000, 0.000000000000000000 ) ) ;
#185 = ORIENTED_EDGE ( 'NONE', *, *, #61, .T. ) ;
#186 = CARTESIAN_POINT ( 'NONE',  ( 0.000000000000000000, 0.000000000000000000, 5.199999999999996625 ) ) ;
#187 = EDGE_LOOP ( 'NONE', ( #304, #197, #12, #95 ) ) ;
#188 = ORIENTED_EDGE ( 'NONE', *, *, #75, .T. ) ;
#189 = PRODUCT_RELATED_PRODUCT_CATEGORY ( 'detail', '', ( #124 ) ) ;
#190 = AXIS2_PLACEMENT_3D ( 'NONE', #251, #17, #257 ) ;
#191 = LOCAL_TIME ( 11, 37, 46.00000000000000000, #105 ) ;
#192 = ADVANCED_FACE ( 'NONE', ( #210, #228 ), #296, .T. ) ;
#193 = AXIS2_PLACEMENT_3D ( 'NONE', #167, #119, #264 ) ;
#194 = PERSON_AND_ORGANIZATION_ROLE ( 'design_owner' ) ;
#195 = CARTESIAN_POINT ( 'NONE',  ( 8.000000000000000000, 9.797174393178825657E-16, 5.000000000000000000 ) ) ;
#196 = DATE_AND_TIME ( #123, #224 ) ;
#197 = ORIENTED_EDGE ( 'NONE', *, *, #268, .T. ) ;
#198 = APPROVAL ( #31, 'NEURÈENÝ' ) ;
#199 = PERSON_AND_ORGANIZATION ( #204, #64 ) ;
#200 = DIRECTION ( 'NONE',  ( 0.000000000000000000, 0.000000000000000000, 1.000000000000000000 ) ) ;
#201 = ORIENTED_EDGE ( 'NONE', *, *, #61, .F. ) ;
#202 = APPROVAL_DATE_TIME ( #58, #170 ) ;
#203 = DIRECTION ( 'NONE',  ( 1.000000000000000000, 0.000000000000000000, 0.000000000000000000 ) ) ;
#204 = PERSON ( 'NEURÈENÝ', 'NEURÈENÝ', 'NEURÈENÝ', ('NEURÈENÝ'), ('NEURÈENÝ'), ('NEURÈENÝ') ) ;
#205 = DIRECTION ( 'NONE',  ( -1.000000000000000000, 0.000000000000000000, 0.000000000000000000 ) ) ;
#206 = FACE_OUTER_BOUND ( 'NONE', #248, .T. ) ;
#207 = ORIENTED_EDGE ( 'NONE', *, *, #96, .F. ) ;
#208 = CC_DESIGN_APPROVAL ( #198, ( #139 ) ) ;
#209 = AXIS2_PLACEMENT_3D ( 'NONE', #67, #259, #73 ) ;
#210 = FACE_BOUND ( 'NONE', #230, .T. ) ;
#211 = ORIENTED_EDGE ( 'NONE', *, *, #142, .T. ) ;
#212 = FACE_OUTER_BOUND ( 'NONE', #187, .T. ) ;
#213 = CLOSED_SHELL ( 'NONE', ( #13, #227, #260, #287, #192, #46, #30, #85, #214 ) ) ;
#214 = ADVANCED_FACE ( 'NONE', ( #151 ), #273, .F. ) ;
#215 = DIRECTION ( 'NONE',  ( -0.000000000000000000, -0.000000000000000000, -1.000000000000000000 ) ) ;
#216 = DESIGN_CONTEXT ( 'detailed design', #223, 'design' ) ;
#217 = AXIS2_PLACEMENT_3D ( 'NONE', #168, #92, #184 ) ;
#218 = AXIS2_PLACEMENT_3D ( 'NONE', #278, #225, #42 ) ;
#219 = APPROVAL_ROLE ( '' ) ;
#220 = EDGE_CURVE ( 'NONE', #294, #107, #15, .T. ) ;
#221 = EDGE_LOOP ( 'NONE', ( #176, #305, #14, #211 ) ) ;
#222 = DATE_TIME_ROLE ( 'classification_date' ) ;
#223 = APPLICATION_CONTEXT ( 'configuration controlled 3d designs of mechanical parts and assemblies' ) ;
#224 = LOCAL_TIME ( 11, 37, 46.00000000000000000, #27 ) ;
#225 = DIRECTION ( 'NONE',  ( -0.000000000000000000, -0.000000000000000000, -1.000000000000000000 ) ) ;
#226 = DATE_AND_TIME ( #253, #81 ) ;
#227 = ADVANCED_FACE ( 'NONE', ( #229 ), #298, .T. ) ;
#228 = FACE_OUTER_BOUND ( 'NONE', #291, .T. ) ;
#229 = FACE_OUTER_BOUND ( 'NONE', #93, .T. ) ;
#230 = EDGE_LOOP ( 'NONE', ( #288, #269 ) ) ;
#231 = AXIS2_PLACEMENT_3D ( 'NONE', #35, #11, #110 ) ;
#232 = VERTEX_POINT ( 'NONE', #88 ) ;
#233 = AXIS2_PLACEMENT_3D ( 'NONE', #45, #72, #239 ) ;
#234 = VERTEX_POINT ( 'NONE', #113 ) ;
#235 = EDGE_CURVE ( 'NONE', #131, #114, #66, .T. ) ;
#236 = AXIS2_PLACEMENT_3D ( 'NONE', #32, #108, #130 ) ;
#237 = AXIS2_PLACEMENT_3D ( 'NONE', #1, #148, #4 ) ;
#238 = CC_DESIGN_SECURITY_CLASSIFICATION ( #101, ( #139 ) ) ;
#239 = DIRECTION ( 'NONE',  ( 1.000000000000000000, 0.000000000000000000, 0.000000000000000000 ) ) ;
#240 = MANIFOLD_SOLID_BREP ( 'Zaoblit1', #213 ) ;
#241 = CARTESIAN_POINT ( 'NONE',  ( 5.450000000000001066, 0.000000000000000000, 4.999999999999998224 ) ) ;
#242 =( NAMED_UNIT ( * ) SI_UNIT ( $, .STERADIAN. ) SOLID_ANGLE_UNIT ( ) );
#243 = PERSON_AND_ORGANIZATION_ROLE ( 'creator' ) ;
#244 = APPROVAL ( #272, 'NEURÈENÝ' ) ;
#245 = LINE ( 'NONE', #122, #65 ) ;
#246 = CIRCLE ( 'NONE', #237, 5.250000000000000888 ) ;
#247 = COORDINATED_UNIVERSAL_TIME_OFFSET ( 1, 0, .AHEAD. ) ;
#248 = EDGE_LOOP ( 'NONE', ( #20, #185, #40, #207 ) ) ;
#249 = APPLICATION_PROTOCOL_DEFINITION ( 'international standard', 'config_control_design', 1994, #223 ) ;
#250 = PERSON_AND_ORGANIZATION ( #204, #64 ) ;
#251 = CARTESIAN_POINT ( 'NONE',  ( 5.450000000000001066, 0.000000000000000000, 5.199999999999996625 ) ) ;
#252 = EDGE_LOOP ( 'NONE', ( #9, #281 ) ) ;
#253 = CALENDAR_DATE ( 2022, 20, 6 ) ;
#254 = DIRECTION ( 'NONE',  ( 1.000000000000000000, 0.000000000000000000, -0.000000000000000000 ) ) ;
#255 = DIRECTION ( 'NONE',  ( 1.000000000000000000, 0.000000000000000000, 0.000000000000000000 ) ) ;
#256 = EDGE_LOOP ( 'NONE', ( #201, #297, #128, #77 ) ) ;
#257 = DIRECTION ( 'NONE',  ( 0.000000000000000000, 0.000000000000000000, -1.000000000000000000 ) ) ;
#258 = CC_DESIGN_PERSON_AND_ORGANIZATION_ASSIGNMENT ( #147, #194, ( #124 ) ) ;
#259 = DIRECTION ( 'NONE',  ( 0.000000000000000000, 0.000000000000000000, 1.000000000000000000 ) ) ;
#260 = ADVANCED_FACE ( 'NONE', ( #206 ), #158, .T. ) ;
#261 = AXIS2_PLACEMENT_3D ( 'NONE', #109, #161, #205 ) ;
#262 = CARTESIAN_POINT ( 'NONE',  ( 8.000000000000000000, 9.797174393178825657E-16, 0.000000000000000000 ) ) ;
#263 = CIRCLE ( 'NONE', #217, 8.000000000000000000 ) ;
#264 = DIRECTION ( 'NONE',  ( 1.000000000000000000, 0.000000000000000000, -0.000000000000000000 ) ) ;
#265 = APPROVAL_ROLE ( '' ) ;
#266 = VECTOR ( 'NONE', #215, 1000.000000000000000 ) ;
#267 = CARTESIAN_POINT ( 'NONE',  ( 5.250000000000000888, 6.429395695523605139E-16, 130.0000000000000000 ) ) ;
#268 = EDGE_CURVE ( 'NONE', #114, #133, #6, .T. ) ;
#269 = ORIENTED_EDGE ( 'NONE', *, *, #21, .T. ) ;
#270 = CARTESIAN_POINT ( 'NONE',  ( 0.000000000000000000, 0.000000000000000000, 5.199999999999996625 ) ) ;
#271 = DIRECTION ( 'NONE',  ( 0.000000000000000000, 0.000000000000000000, 1.000000000000000000 ) ) ;
#272 = APPROVAL_STATUS ( 'not_yet_approved' ) ;
#273 = TOROIDAL_SURFACE ( 'NONE', #144, 5.450000000000001066, 0.2000000000000000111 ) ;
#274 = DIRECTION ( 'NONE',  ( 1.000000000000000000, 0.000000000000000000, 0.000000000000000000 ) ) ;
#275 = CIRCLE ( 'NONE', #34, 8.000000000000000000 ) ;
#276 = PLANE ( 'NONE',  #209 ) ;
#277 = DIRECTION ( 'NONE',  ( -0.000000000000000000, -0.000000000000000000, -1.000000000000000000 ) ) ;
#278 = CARTESIAN_POINT ( 'NONE',  ( 0.000000000000000000, 0.000000000000000000, 5.000000000000000000 ) ) ;
#279 = EDGE_CURVE ( 'NONE', #107, #133, #98, .T. ) ;
#280 = CARTESIAN_POINT ( 'NONE',  ( 0.000000000000000000, 0.000000000000000000, 5.000000000000000000 ) ) ;
#281 = ORIENTED_EDGE ( 'NONE', *, *, #54, .F. ) ;
#282 = LOCAL_TIME ( 11, 37, 46.00000000000000000, #247 ) ;
#283 = FACE_OUTER_BOUND ( 'NONE', #252, .T. ) ;
#284 = CIRCLE ( 'NONE', #236, 5.250000000000000888 ) ;
#285 = FACE_OUTER_BOUND ( 'NONE', #111, .T. ) ;
#286 = APPROVAL_PERSON_ORGANIZATION ( #78, #244, #219 ) ;
#287 = ADVANCED_FACE ( 'NONE', ( #41 ), #136, .T. ) ;
#288 = ORIENTED_EDGE ( 'NONE', *, *, #279, .T. ) ;
#289 = SECURITY_CLASSIFICATION_LEVEL ( 'unclassified' ) ;
#290 = COORDINATED_UNIVERSAL_TIME_OFFSET ( 1, 0, .AHEAD. ) ;
#291 = EDGE_LOOP ( 'NONE', ( #106, #149 ) ) ;
#292 = APPROVAL_ROLE ( '' ) ;
#293 = AXIS2_PLACEMENT_3D ( 'NONE', #165, #87, #82 ) ;
#294 = VERTEX_POINT ( 'NONE', #175 ) ;
#295 = COORDINATED_UNIVERSAL_TIME_OFFSET ( 1, 0, .AHEAD. ) ;
#296 = PLANE ( 'NONE',  #102 ) ;
#297 = ORIENTED_EDGE ( 'NONE', *, *, #138, .F. ) ;
#298 = CYLINDRICAL_SURFACE ( 'NONE', #231, 5.250000000000000888 ) ;
#299 = ORIENTED_EDGE ( 'NONE', *, *, #117, .T. ) ;
#300 = CIRCLE ( 'NONE', #218, 5.450000000000001066 ) ;
#301 = ORIENTED_EDGE ( 'NONE', *, *, #235, .F. ) ;
#302 = EDGE_CURVE ( 'NONE', #181, #131, #91, .T. ) ;
#303 = DIRECTION ( 'NONE',  ( 1.224646799147353207E-16, 1.000000000000000000, -0.000000000000000000 ) ) ;
#304 = ORIENTED_EDGE ( 'NONE', *, *, #142, .F. ) ;
#305 = ORIENTED_EDGE ( 'NONE', *, *, #75, .F. ) ;
#306 = APPROVAL_PERSON_ORGANIZATION ( #152, #170, #292 ) ;
#307 = AXIS2_PLACEMENT_3D ( 'NONE', #55, #7, #171 ) ;
ENDSEC;
END-ISO-10303-21;
