ISO-10303-21;
HEADER;
FILE_DESCRIPTION (( 'STEP AP203' ),
    '1' );
FILE_NAME ('d1e4.STEP',
    '2022-06-20T10:05:20',
    ( '' ),
    ( '' ),
    'SwSTEP 2.0',
    'SolidWorks 2019',
    '' );
FILE_SCHEMA (( 'CONFIG_CONTROL_DESIGN' ));
ENDSEC;

DATA;
#1 = COORDINATED_UNIVERSAL_TIME_OFFSET ( 1, 0, .AHEAD. ) ;
#2 = VERTEX_POINT ( 'NONE', #25 ) ;
#3 = ADVANCED_FACE ( 'NONE', ( #219 ), #281, .F. ) ;
#4 = CIRCLE ( 'NONE', #184, 4.000000000000000000 ) ;
#5 = EDGE_LOOP ( 'NONE', ( #287, #291 ) ) ;
#6 = LOCAL_TIME ( 12, 5, 20.00000000000000000, #76 ) ;
#7 = CALENDAR_DATE ( 2022, 20, 6 ) ;
#8 = ORIENTED_EDGE ( 'NONE', *, *, #288, .T. ) ;
#9 = PERSON_AND_ORGANIZATION ( #114, #255 ) ;
#10 = EDGE_LOOP ( 'NONE', ( #29, #75 ) ) ;
#11 = DIRECTION ( 'NONE',  ( 0.000000000000000000, 0.000000000000000000, 1.000000000000000000 ) ) ;
#12 = CARTESIAN_POINT ( 'NONE',  ( -2.250000000000000000, 0.000000000000000000, 318.0000000000000000 ) ) ;
#13 = CC_DESIGN_PERSON_AND_ORGANIZATION_ASSIGNMENT ( #192, #166, ( #242 ) ) ;
#14 = DIRECTION ( 'NONE',  ( 0.000000000000000000, 0.000000000000000000, 1.000000000000000000 ) ) ;
#15 = DIRECTION ( 'NONE',  ( 1.000000000000000000, 0.000000000000000000, 0.000000000000000000 ) ) ;
#16 = TOROIDAL_SURFACE ( 'NONE', #195, 2.449999999999999734, 0.2000000000000000111 ) ;
#17 = LOCAL_TIME ( 12, 5, 20.00000000000000000, #95 ) ;
#18 = LINE ( 'NONE', #227, #236 ) ;
#19 = APPROVAL_DATE_TIME ( #215, #34 ) ;
#20 = CC_DESIGN_PERSON_AND_ORGANIZATION_ASSIGNMENT ( #125, #286, ( #260 ) ) ;
#21 = ADVANCED_FACE ( 'NONE', ( #74 ), #26, .T. ) ;
#22 = APPROVAL_STATUS ( 'not_yet_approved' ) ;
#23 = ORIENTED_EDGE ( 'NONE', *, *, #71, .F. ) ;
#24 = LOCAL_TIME ( 12, 5, 20.00000000000000000, #1 ) ;
#25 = CARTESIAN_POINT ( 'NONE',  ( 2.250000000000000000, 2.755455298081544285E-16, 3.199999999999980638 ) ) ;
#26 = CYLINDRICAL_SURFACE ( 'NONE', #221, 4.000000000000000000 ) ;
#27 = ADVANCED_FACE ( 'NONE', ( #84 ), #152, .T. ) ;
#28 = APPROVAL_STATUS ( 'not_yet_approved' ) ;
#29 = ORIENTED_EDGE ( 'NONE', *, *, #306, .T. ) ;
#30 = CALENDAR_DATE ( 2022, 20, 6 ) ;
#31 = EDGE_LOOP ( 'NONE', ( #241, #174, #73, #55 ) ) ;
#32 = CC_DESIGN_DATE_AND_TIME_ASSIGNMENT ( #220, #48, ( #210 ) ) ;
#33 = CARTESIAN_POINT ( 'NONE',  ( 0.000000000000000000, 0.000000000000000000, 3.199999999999980638 ) ) ;
#34 = APPROVAL ( #22, 'NEURÈENÝ' ) ;
#35 = DIRECTION ( 'NONE',  ( -0.000000000000000000, -0.000000000000000000, -1.000000000000000000 ) ) ;
#36 = CC_DESIGN_APPROVAL ( #34, ( #242 ) ) ;
#37 = CARTESIAN_POINT ( 'NONE',  ( 4.000000000000000000, 4.898587196589412829E-16, 3.000000000000000000 ) ) ;
#38 = EDGE_CURVE ( 'NONE', #128, #58, #214, .T. ) ;
#39 = CARTESIAN_POINT ( 'NONE',  ( 0.000000000000000000, 0.000000000000000000, 3.199999999999980638 ) ) ;
#40 = DIRECTION ( 'NONE',  ( 1.000000000000000000, 0.000000000000000000, 0.000000000000000000 ) ) ;
#41 = AXIS2_PLACEMENT_3D ( 'NONE', #62, #35, #204 ) ;
#42 = FACE_OUTER_BOUND ( 'NONE', #120, .T. ) ;
#43 = CALENDAR_DATE ( 2022, 20, 6 ) ;
#44 = AXIS2_PLACEMENT_3D ( 'NONE', #188, #185, #162 ) ;
#45 = DIRECTION ( 'NONE',  ( 0.000000000000000000, 0.000000000000000000, 1.000000000000000000 ) ) ;
#46 = CARTESIAN_POINT ( 'NONE',  ( 0.000000000000000000, 0.000000000000000000, 0.000000000000000000 ) ) ;
#47 = AXIS2_PLACEMENT_3D ( 'NONE', #273, #182, #81 ) ;
#48 = DATE_TIME_ROLE ( 'classification_date' ) ;
#49 = CIRCLE ( 'NONE', #158, 4.000000000000000000 ) ;
#50 = VERTEX_POINT ( 'NONE', #228 ) ;
#51 = PERSON_AND_ORGANIZATION ( #114, #255 ) ;
#52 = DIRECTION ( 'NONE',  ( 1.000000000000000000, 0.000000000000000000, 0.000000000000000000 ) ) ;
#53 = VERTEX_POINT ( 'NONE', #229 ) ;
#54 = APPROVAL_ROLE ( '' ) ;
#55 = ORIENTED_EDGE ( 'NONE', *, *, #109, .F. ) ;
#56 = AXIS2_PLACEMENT_3D ( 'NONE', #256, #212, #191 ) ;
#57 = CC_DESIGN_SECURITY_CLASSIFICATION ( #210, ( #260 ) ) ;
#58 = VERTEX_POINT ( 'NONE', #12 ) ;
#59 = FACE_OUTER_BOUND ( 'NONE', #147, .T. ) ;
#60 = EDGE_CURVE ( 'NONE', #53, #194, #118, .T. ) ;
#61 = CYLINDRICAL_SURFACE ( 'NONE', #179, 2.250000000000000000 ) ;
#62 = CARTESIAN_POINT ( 'NONE',  ( 0.000000000000000000, 0.000000000000000000, 318.0000000000000000 ) ) ;
#63 = CARTESIAN_POINT ( 'NONE',  ( 0.000000000000000000, 0.000000000000000000, 318.0000000000000000 ) ) ;
#64 = CIRCLE ( 'NONE', #141, 2.250000000000000000 ) ;
#65 = DIRECTION ( 'NONE',  ( 0.000000000000000000, 0.000000000000000000, 1.000000000000000000 ) ) ;
#66 = DIRECTION ( 'NONE',  ( 1.000000000000000000, 0.000000000000000000, -0.000000000000000000 ) ) ;
#67 = PRODUCT_DEFINITION_SHAPE ( 'NONE', 'NONE',  #242 ) ;
#68 = PERSON_AND_ORGANIZATION ( #114, #255 ) ;
#69 = DIRECTION ( 'NONE',  ( 0.000000000000000000, 0.000000000000000000, 1.000000000000000000 ) ) ;
#70 = FACE_OUTER_BOUND ( 'NONE', #78, .T. ) ;
#71 = EDGE_CURVE ( 'NONE', #2, #265, #64, .T. ) ;
#72 = PERSON_AND_ORGANIZATION ( #114, #255 ) ;
#73 = ORIENTED_EDGE ( 'NONE', *, *, #71, .T. ) ;
#74 = FACE_OUTER_BOUND ( 'NONE', #150, .T. ) ;
#75 = ORIENTED_EDGE ( 'NONE', *, *, #181, .T. ) ;
#76 = COORDINATED_UNIVERSAL_TIME_OFFSET ( 1, 0, .AHEAD. ) ;
#77 = ORIENTED_EDGE ( 'NONE', *, *, #82, .F. ) ;
#78 = EDGE_LOOP ( 'NONE', ( #243, #198 ) ) ;
#79 = EDGE_CURVE ( 'NONE', #292, #50, #4, .T. ) ;
#80 = DIRECTION ( 'NONE',  ( 1.000000000000000000, 0.000000000000000000, 0.000000000000000000 ) ) ;
#81 = DIRECTION ( 'NONE',  ( -1.000000000000000000, 0.000000000000000000, 0.000000000000000000 ) ) ;
#82 = EDGE_CURVE ( 'NONE', #50, #292, #86, .T. ) ;
#83 = DIRECTION ( 'NONE',  ( -0.000000000000000000, -0.000000000000000000, -1.000000000000000000 ) ) ;
#84 = FACE_OUTER_BOUND ( 'NONE', #197, .T. ) ;
#85 = CARTESIAN_POINT ( 'NONE',  ( 0.000000000000000000, 0.000000000000000000, 3.000000000000000000 ) ) ;
#86 = CIRCLE ( 'NONE', #263, 4.000000000000000000 ) ;
#87 = DIRECTION ( 'NONE',  ( 1.000000000000000000, 0.000000000000000000, -0.000000000000000000 ) ) ;
#88 = AXIS2_PLACEMENT_3D ( 'NONE', #33, #65, #103 ) ;
#89 = PERSON_AND_ORGANIZATION ( #114, #255 ) ;
#90 = EDGE_CURVE ( 'NONE', #194, #53, #130, .T. ) ;
#91 = PLANE ( 'NONE',  #168 ) ;
#92 = FACE_OUTER_BOUND ( 'NONE', #10, .T. ) ;
#93 = PERSON_AND_ORGANIZATION_ROLE ( 'creator' ) ;
#94 = ORIENTED_EDGE ( 'NONE', *, *, #233, .F. ) ;
#95 = COORDINATED_UNIVERSAL_TIME_OFFSET ( 1, 0, .AHEAD. ) ;
#96 = ORIENTED_EDGE ( 'NONE', *, *, #143, .T. ) ;
#97 = DATE_TIME_ROLE ( 'creation_date' ) ;
#98 = ORIENTED_EDGE ( 'NONE', *, *, #288, .F. ) ;
#99 = APPROVAL_ROLE ( '' ) ;
#100 = ORIENTED_EDGE ( 'NONE', *, *, #90, .F. ) ;
#101 = ORIENTED_EDGE ( 'NONE', *, *, #181, .F. ) ;
#102 = ADVANCED_BREP_SHAPE_REPRESENTATION ( 'd1e4', ( #222, #155 ), #216 ) ;
#103 = DIRECTION ( 'NONE',  ( 1.000000000000000000, 0.000000000000000000, 0.000000000000000000 ) ) ;
#104 = CARTESIAN_POINT ( 'NONE',  ( 4.000000000000000000, 4.898587196589412829E-16, 3.000000000000000000 ) ) ;
#105 = CARTESIAN_POINT ( 'NONE',  ( 2.250000000000000000, 2.755455298081544285E-16, 318.0000000000000000 ) ) ;
#106 = LINE ( 'NONE', #104, #113 ) ;
#107 = CIRCLE ( 'NONE', #108, 0.2000000000000000944 ) ;
#108 = AXIS2_PLACEMENT_3D ( 'NONE', #280, #261, #305 ) ;
#109 = EDGE_CURVE ( 'NONE', #58, #265, #18, .T. ) ;
#110 = LINE ( 'NONE', #296, #142 ) ;
#111 =( NAMED_UNIT ( * ) SI_UNIT ( $, .STERADIAN. ) SOLID_ANGLE_UNIT ( ) );
#112 = AXIS2_PLACEMENT_3D ( 'NONE', #232, #131, #156 ) ;
#113 = VECTOR ( 'NONE', #180, 1000.000000000000000 ) ;
#114 = PERSON ( 'NEURÈENÝ', 'NEURÈENÝ', 'NEURÈENÝ', ('NEURÈENÝ'), ('NEURÈENÝ'), ('NEURÈENÝ') ) ;
#115 =( NAMED_UNIT ( * ) PLANE_ANGLE_UNIT ( ) SI_UNIT ( $, .RADIAN. ) );
#116 = DIRECTION ( 'NONE',  ( -0.000000000000000000, -0.000000000000000000, -1.000000000000000000 ) ) ;
#117 = COORDINATED_UNIVERSAL_TIME_OFFSET ( 1, 0, .AHEAD. ) ;
#118 = CIRCLE ( 'NONE', #200, 2.449999999999999734 ) ;
#119 = LOCAL_TIME ( 12, 5, 20.00000000000000000, #117 ) ;
#120 = EDGE_LOOP ( 'NONE', ( #77, #170 ) ) ;
#121 = ORIENTED_EDGE ( 'NONE', *, *, #124, .F. ) ;
#122 = APPROVAL_DATE_TIME ( #262, #282 ) ;
#123 = CARTESIAN_POINT ( 'NONE',  ( 0.000000000000000000, 0.000000000000000000, 3.000000000000000000 ) ) ;
#124 = EDGE_CURVE ( 'NONE', #2, #194, #173, .T. ) ;
#125 = PERSON_AND_ORGANIZATION ( #114, #255 ) ;
#126 = ORIENTED_EDGE ( 'NONE', *, *, #213, .F. ) ;
#127 = PERSON_AND_ORGANIZATION_ROLE ( 'classification_officer' ) ;
#128 = VERTEX_POINT ( 'NONE', #105 ) ;
#129 = DIRECTION ( 'NONE',  ( 0.000000000000000000, 0.000000000000000000, 1.000000000000000000 ) ) ;
#130 = CIRCLE ( 'NONE', #112, 2.449999999999999734 ) ;
#131 = DIRECTION ( 'NONE',  ( -0.000000000000000000, -0.000000000000000000, -1.000000000000000000 ) ) ;
#132 = CC_DESIGN_APPROVAL ( #282, ( #260 ) ) ;
#133 = DIRECTION ( 'NONE',  ( 0.000000000000000000, -1.000000000000000000, 0.000000000000000000 ) ) ;
#134 = CARTESIAN_POINT ( 'NONE',  ( 2.449999999999999734, 0.000000000000000000, 3.199999999999980638 ) ) ;
#135 = DIRECTION ( 'NONE',  ( 0.000000000000000000, 0.000000000000000000, 1.000000000000000000 ) ) ;
#136 = APPLICATION_PROTOCOL_DEFINITION ( 'international standard', 'config_control_design', 1994, #295 ) ;
#137 = CARTESIAN_POINT ( 'NONE',  ( 2.250000000000000000, 2.755455298081544285E-16, 318.0000000000000000 ) ) ;
#138 = CARTESIAN_POINT ( 'NONE',  ( 0.000000000000000000, 0.000000000000000000, 0.000000000000000000 ) ) ;
#139 = ADVANCED_FACE ( 'NONE', ( #297 ), #16, .F. ) ;
#140 = DIRECTION ( 'NONE',  ( 1.000000000000000000, 0.000000000000000000, 0.000000000000000000 ) ) ;
#141 = AXIS2_PLACEMENT_3D ( 'NONE', #39, #14, #40 ) ;
#142 = VECTOR ( 'NONE', #203, 1000.000000000000000 ) ;
#143 = EDGE_CURVE ( 'NONE', #199, #292, #106, .T. ) ;
#144 = CALENDAR_DATE ( 2022, 20, 6 ) ;
#145 = ORIENTED_EDGE ( 'NONE', *, *, #60, .F. ) ;
#146 = PERSON_AND_ORGANIZATION ( #114, #255 ) ;
#147 = EDGE_LOOP ( 'NONE', ( #224, #271, #226, #289 ) ) ;
#148 = EDGE_LOOP ( 'NONE', ( #98, #23, #193, #145 ) ) ;
#149 = APPROVAL_PERSON_ORGANIZATION ( #68, #34, #257 ) ;
#150 = EDGE_LOOP ( 'NONE', ( #101, #96, #151, #267 ) ) ;
#151 = ORIENTED_EDGE ( 'NONE', *, *, #79, .T. ) ;
#152 = CYLINDRICAL_SURFACE ( 'NONE', #41, 2.250000000000000000 ) ;
#153 = CC_DESIGN_DATE_AND_TIME_ASSIGNMENT ( #290, #97, ( #242 ) ) ;
#154 = DIRECTION ( 'NONE',  ( 0.000000000000000000, 0.000000000000000000, 1.000000000000000000 ) ) ;
#155 = AXIS2_PLACEMENT_3D ( 'NONE', #46, #285, #140 ) ;
#156 = DIRECTION ( 'NONE',  ( 1.000000000000000000, 0.000000000000000000, 0.000000000000000000 ) ) ;
#157 = FACE_OUTER_BOUND ( 'NONE', #31, .T. ) ;
#158 = AXIS2_PLACEMENT_3D ( 'NONE', #237, #69, #235 ) ;
#159 = FACE_BOUND ( 'NONE', #5, .T. ) ;
#160 = DESIGN_CONTEXT ( 'detailed design', #211, 'design' ) ;
#161 = LINE ( 'NONE', #137, #270 ) ;
#162 = DIRECTION ( 'NONE',  ( 1.000000000000000000, 0.000000000000000000, -0.000000000000000000 ) ) ;
#163 = PLANE ( 'NONE',  #44 ) ;
#164 = PRODUCT ( 'd1e4', 'd1e4', '', ( #240 ) ) ;
#165 = EDGE_CURVE ( 'NONE', #218, #50, #110, .T. ) ;
#166 = PERSON_AND_ORGANIZATION_ROLE ( 'creator' ) ;
#167 = APPROVAL ( #28, 'NEURÈENÝ' ) ;
#168 = AXIS2_PLACEMENT_3D ( 'NONE', #138, #303, #87 ) ;
#169 = CARTESIAN_POINT ( 'NONE',  ( 0.000000000000000000, 0.000000000000000000, 3.199999999999980638 ) ) ;
#170 = ORIENTED_EDGE ( 'NONE', *, *, #79, .F. ) ;
#171 = APPROVAL_DATE_TIME ( #264, #167 ) ;
#172 = ORIENTED_EDGE ( 'NONE', *, *, #109, .T. ) ;
#173 = CIRCLE ( 'NONE', #277, 0.2000000000000000944 ) ;
#174 = ORIENTED_EDGE ( 'NONE', *, *, #233, .T. ) ;
#175 = ADVANCED_FACE ( 'NONE', ( #59 ), #207, .T. ) ;
#176 = CARTESIAN_POINT ( 'NONE',  ( 0.000000000000000000, 0.000000000000000000, 0.000000000000000000 ) ) ;
#177 = CARTESIAN_POINT ( 'NONE',  ( 0.000000000000000000, 0.000000000000000000, 318.0000000000000000 ) ) ;
#178 = ADVANCED_FACE ( 'NONE', ( #157 ), #61, .T. ) ;
#179 = AXIS2_PLACEMENT_3D ( 'NONE', #177, #253, #272 ) ;
#180 = DIRECTION ( 'NONE',  ( -0.000000000000000000, -0.000000000000000000, -1.000000000000000000 ) ) ;
#181 = EDGE_CURVE ( 'NONE', #199, #218, #246, .T. ) ;
#182 = DIRECTION ( 'NONE',  ( -0.000000000000000000, -0.000000000000000000, -1.000000000000000000 ) ) ;
#183 = DIRECTION ( 'NONE',  ( 1.000000000000000000, 0.000000000000000000, 0.000000000000000000 ) ) ;
#184 = AXIS2_PLACEMENT_3D ( 'NONE', #176, #135, #201 ) ;
#185 = DIRECTION ( 'NONE',  ( 0.000000000000000000, 0.000000000000000000, 1.000000000000000000 ) ) ;
#186 = CIRCLE ( 'NONE', #88, 2.250000000000000000 ) ;
#187 = APPLICATION_PROTOCOL_DEFINITION ( 'international standard', 'config_control_design', 1994, #211 ) ;
#188 = CARTESIAN_POINT ( 'NONE',  ( 0.000000000000000000, 0.000000000000000000, 318.0000000000000000 ) ) ;
#189 = CLOSED_SHELL ( 'NONE', ( #3, #178, #21, #175, #248, #230, #27, #238, #139 ) ) ;
#190 = CC_DESIGN_APPROVAL ( #167, ( #210 ) ) ;
#191 = DIRECTION ( 'NONE',  ( 1.000000000000000000, 0.000000000000000000, 0.000000000000000000 ) ) ;
#192 = PERSON_AND_ORGANIZATION ( #114, #255 ) ;
#193 = ORIENTED_EDGE ( 'NONE', *, *, #124, .T. ) ;
#194 = VERTEX_POINT ( 'NONE', #275 ) ;
#195 = AXIS2_PLACEMENT_3D ( 'NONE', #231, #250, #15 ) ;
#196 = COORDINATED_UNIVERSAL_TIME_OFFSET ( 1, 0, .AHEAD. ) ;
#197 = EDGE_LOOP ( 'NONE', ( #94, #269, #172, #245 ) ) ;
#198 = ORIENTED_EDGE ( 'NONE', *, *, #38, .T. ) ;
#199 = VERTEX_POINT ( 'NONE', #37 ) ;
#200 = AXIS2_PLACEMENT_3D ( 'NONE', #85, #274, #183 ) ;
#201 = DIRECTION ( 'NONE',  ( 1.000000000000000000, 0.000000000000000000, 0.000000000000000000 ) ) ;
#202 = CC_DESIGN_PERSON_AND_ORGANIZATION_ASSIGNMENT ( #89, #234, ( #164 ) ) ;
#203 = DIRECTION ( 'NONE',  ( -0.000000000000000000, -0.000000000000000000, -1.000000000000000000 ) ) ;
#204 = DIRECTION ( 'NONE',  ( -1.000000000000000000, 0.000000000000000000, 0.000000000000000000 ) ) ;
#205 = AXIS2_PLACEMENT_3D ( 'NONE', #169, #266, #52 ) ;
#206 = CC_DESIGN_PERSON_AND_ORGANIZATION_ASSIGNMENT ( #72, #127, ( #210 ) ) ;
#207 = CYLINDRICAL_SURFACE ( 'NONE', #47, 4.000000000000000000 ) ;
#208 = UNCERTAINTY_MEASURE_WITH_UNIT (LENGTH_MEASURE( 1.000000000000000082E-05 ), #239, 'distance_accuracy_value', 'NONE');
#209 = CARTESIAN_POINT ( 'NONE',  ( 0.000000000000000000, 0.000000000000000000, 3.000000000000000000 ) ) ;
#210 = SECURITY_CLASSIFICATION ( '', '', #225 ) ;
#211 = APPLICATION_CONTEXT ( 'configuration controlled 3d designs of mechanical parts and assemblies' ) ;
#212 = DIRECTION ( 'NONE',  ( 0.000000000000000000, 0.000000000000000000, 1.000000000000000000 ) ) ;
#213 = EDGE_CURVE ( 'NONE', #265, #2, #186, .T. ) ;
#214 = CIRCLE ( 'NONE', #276, 2.250000000000000000 ) ;
#215 = DATE_AND_TIME ( #43, #119 ) ;
#216 =( GEOMETRIC_REPRESENTATION_CONTEXT ( 3 ) GLOBAL_UNCERTAINTY_ASSIGNED_CONTEXT ( ( #208 ) ) GLOBAL_UNIT_ASSIGNED_CONTEXT ( ( #239, #115, #111 ) ) REPRESENTATION_CONTEXT ( 'NONE', 'WORKASPACE' ) );
#217 = APPROVAL_STATUS ( 'not_yet_approved' ) ;
#218 = VERTEX_POINT ( 'NONE', #249 ) ;
#219 = FACE_OUTER_BOUND ( 'NONE', #247, .T. ) ;
#220 = DATE_AND_TIME ( #7, #17 ) ;
#221 = AXIS2_PLACEMENT_3D ( 'NONE', #123, #223, #294 ) ;
#222 = MANIFOLD_SOLID_BREP ( 'Zaoblit1', #189 ) ;
#223 = DIRECTION ( 'NONE',  ( -0.000000000000000000, -0.000000000000000000, -1.000000000000000000 ) ) ;
#224 = ORIENTED_EDGE ( 'NONE', *, *, #143, .F. ) ;
#225 = SECURITY_CLASSIFICATION_LEVEL ( 'unclassified' ) ;
#226 = ORIENTED_EDGE ( 'NONE', *, *, #165, .T. ) ;
#227 = CARTESIAN_POINT ( 'NONE',  ( -2.250000000000000000, 0.000000000000000000, 318.0000000000000000 ) ) ;
#228 = CARTESIAN_POINT ( 'NONE',  ( -4.000000000000000000, 0.000000000000000000, 0.000000000000000000 ) ) ;
#229 = CARTESIAN_POINT ( 'NONE',  ( -2.449999999999999734, 3.000384657911015370E-16, 2.999999999999990674 ) ) ;
#230 = ADVANCED_FACE ( 'NONE', ( #42 ), #91, .F. ) ;
#231 = CARTESIAN_POINT ( 'NONE',  ( 0.000000000000000000, 0.000000000000000000, 3.199999999999980638 ) ) ;
#232 = CARTESIAN_POINT ( 'NONE',  ( 0.000000000000000000, 0.000000000000000000, 3.000000000000000000 ) ) ;
#233 = EDGE_CURVE ( 'NONE', #128, #2, #161, .T. ) ;
#234 = PERSON_AND_ORGANIZATION_ROLE ( 'design_owner' ) ;
#235 = DIRECTION ( 'NONE',  ( 1.000000000000000000, 0.000000000000000000, 0.000000000000000000 ) ) ;
#236 = VECTOR ( 'NONE', #83, 1000.000000000000000 ) ;
#237 = CARTESIAN_POINT ( 'NONE',  ( 0.000000000000000000, 0.000000000000000000, 3.000000000000000000 ) ) ;
#238 = ADVANCED_FACE ( 'NONE', ( #70 ), #163, .T. ) ;
#239 =( LENGTH_UNIT ( ) NAMED_UNIT ( * ) SI_UNIT ( .MILLI., .METRE. ) );
#240 = MECHANICAL_CONTEXT ( 'NONE', #295, 'mechanical' ) ;
#241 = ORIENTED_EDGE ( 'NONE', *, *, #38, .F. ) ;
#242 = PRODUCT_DEFINITION ( 'NEZNÁMÝ', '', #260, #160 ) ;
#243 = ORIENTED_EDGE ( 'NONE', *, *, #258, .T. ) ;
#244 = CALENDAR_DATE ( 2022, 20, 6 ) ;
#245 = ORIENTED_EDGE ( 'NONE', *, *, #213, .T. ) ;
#246 = CIRCLE ( 'NONE', #283, 4.000000000000000000 ) ;
#247 = EDGE_LOOP ( 'NONE', ( #126, #8, #100, #121 ) ) ;
#248 = ADVANCED_FACE ( 'NONE', ( #159, #92 ), #278, .T. ) ;
#249 = CARTESIAN_POINT ( 'NONE',  ( -4.000000000000000000, 0.000000000000000000, 3.000000000000000000 ) ) ;
#250 = DIRECTION ( 'NONE',  ( 0.000000000000000000, 0.000000000000000000, 1.000000000000000000 ) ) ;
#251 = DIRECTION ( 'NONE',  ( 1.000000000000000000, 0.000000000000000000, 0.000000000000000000 ) ) ;
#252 = DIRECTION ( 'NONE',  ( 1.000000000000000000, 0.000000000000000000, 0.000000000000000000 ) ) ;
#253 = DIRECTION ( 'NONE',  ( -0.000000000000000000, -0.000000000000000000, -1.000000000000000000 ) ) ;
#254 = CARTESIAN_POINT ( 'NONE',  ( 4.000000000000000000, 4.898587196589412829E-16, 0.000000000000000000 ) ) ;
#255 = ORGANIZATION ( 'NEURÈENÝ', 'NEURÈENÝ', '' ) ;
#256 = CARTESIAN_POINT ( 'NONE',  ( 0.000000000000000000, 0.000000000000000000, 318.0000000000000000 ) ) ;
#257 = APPROVAL_ROLE ( '' ) ;
#258 = EDGE_CURVE ( 'NONE', #58, #128, #299, .T. ) ;
#259 = CARTESIAN_POINT ( 'NONE',  ( -2.250000000000000000, 0.000000000000000000, 3.199999999999980638 ) ) ;
#260 = PRODUCT_DEFINITION_FORMATION_WITH_SPECIFIED_SOURCE ( 'LIBOVOLNÝ', '', #164, .NOT_KNOWN. ) ;
#261 = DIRECTION ( 'NONE',  ( 1.224646799147353207E-16, 1.000000000000000000, -0.000000000000000000 ) ) ;
#262 = DATE_AND_TIME ( #244, #24 ) ;
#263 = AXIS2_PLACEMENT_3D ( 'NONE', #301, #11, #252 ) ;
#264 = DATE_AND_TIME ( #144, #6 ) ;
#265 = VERTEX_POINT ( 'NONE', #259 ) ;
#266 = DIRECTION ( 'NONE',  ( 0.000000000000000000, 0.000000000000000000, 1.000000000000000000 ) ) ;
#267 = ORIENTED_EDGE ( 'NONE', *, *, #165, .F. ) ;
#268 = SHAPE_DEFINITION_REPRESENTATION ( #67, #102 ) ;
#269 = ORIENTED_EDGE ( 'NONE', *, *, #258, .F. ) ;
#270 = VECTOR ( 'NONE', #116, 1000.000000000000000 ) ;
#271 = ORIENTED_EDGE ( 'NONE', *, *, #306, .F. ) ;
#272 = DIRECTION ( 'NONE',  ( -1.000000000000000000, 0.000000000000000000, 0.000000000000000000 ) ) ;
#273 = CARTESIAN_POINT ( 'NONE',  ( 0.000000000000000000, 0.000000000000000000, 3.000000000000000000 ) ) ;
#274 = DIRECTION ( 'NONE',  ( -0.000000000000000000, -0.000000000000000000, -1.000000000000000000 ) ) ;
#275 = CARTESIAN_POINT ( 'NONE',  ( 2.449999999999999734, 0.000000000000000000, 2.999999999999990674 ) ) ;
#276 = AXIS2_PLACEMENT_3D ( 'NONE', #63, #129, #80 ) ;
#277 = AXIS2_PLACEMENT_3D ( 'NONE', #134, #133, #302 ) ;
#278 = PLANE ( 'NONE',  #307 ) ;
#279 = CARTESIAN_POINT ( 'NONE',  ( 0.000000000000000000, 0.000000000000000000, 3.000000000000000000 ) ) ;
#280 = CARTESIAN_POINT ( 'NONE',  ( -2.449999999999999734, 3.000384657911015370E-16, 3.199999999999980638 ) ) ;
#281 = TOROIDAL_SURFACE ( 'NONE', #205, 2.449999999999999734, 0.2000000000000000111 ) ;
#282 = APPROVAL ( #217, 'NEURÈENÝ' ) ;
#283 = AXIS2_PLACEMENT_3D ( 'NONE', #209, #154, #251 ) ;
#284 = APPROVAL_PERSON_ORGANIZATION ( #146, #167, #99 ) ;
#285 = DIRECTION ( 'NONE',  ( 0.000000000000000000, 0.000000000000000000, 1.000000000000000000 ) ) ;
#286 = PERSON_AND_ORGANIZATION_ROLE ( 'design_supplier' ) ;
#287 = ORIENTED_EDGE ( 'NONE', *, *, #90, .T. ) ;
#288 = EDGE_CURVE ( 'NONE', #265, #53, #107, .T. ) ;
#289 = ORIENTED_EDGE ( 'NONE', *, *, #82, .T. ) ;
#290 = DATE_AND_TIME ( #30, #300 ) ;
#291 = ORIENTED_EDGE ( 'NONE', *, *, #60, .T. ) ;
#292 = VERTEX_POINT ( 'NONE', #254 ) ;
#293 = APPROVAL_PERSON_ORGANIZATION ( #9, #282, #54 ) ;
#294 = DIRECTION ( 'NONE',  ( -1.000000000000000000, 0.000000000000000000, 0.000000000000000000 ) ) ;
#295 = APPLICATION_CONTEXT ( 'configuration controlled 3d designs of mechanical parts and assemblies' ) ;
#296 = CARTESIAN_POINT ( 'NONE',  ( -4.000000000000000000, 0.000000000000000000, 3.000000000000000000 ) ) ;
#297 = FACE_OUTER_BOUND ( 'NONE', #148, .T. ) ;
#298 = PRODUCT_RELATED_PRODUCT_CATEGORY ( 'detail', '', ( #164 ) ) ;
#299 = CIRCLE ( 'NONE', #56, 2.250000000000000000 ) ;
#300 = LOCAL_TIME ( 12, 5, 20.00000000000000000, #196 ) ;
#301 = CARTESIAN_POINT ( 'NONE',  ( 0.000000000000000000, 0.000000000000000000, 0.000000000000000000 ) ) ;
#302 = DIRECTION ( 'NONE',  ( 0.000000000000000000, 0.000000000000000000, -1.000000000000000000 ) ) ;
#303 = DIRECTION ( 'NONE',  ( 0.000000000000000000, 0.000000000000000000, 1.000000000000000000 ) ) ;
#304 = CC_DESIGN_PERSON_AND_ORGANIZATION_ASSIGNMENT ( #51, #93, ( #260 ) ) ;
#305 = DIRECTION ( 'NONE',  ( -1.000000000000000000, 1.224646799147353207E-16, 0.000000000000000000 ) ) ;
#306 = EDGE_CURVE ( 'NONE', #218, #199, #49, .T. ) ;
#307 = AXIS2_PLACEMENT_3D ( 'NONE', #279, #45, #66 ) ;
ENDSEC;
END-ISO-10303-21;
