ISO-10303-21;
HEADER;
FILE_DESCRIPTION (( 'STEP AP203' ),
    '1' );
FILE_NAME ('e3bf.STEP',
    '2022-06-20T10:20:13',
    ( '' ),
    ( '' ),
    'SwSTEP 2.0',
    'SolidWorks 2019',
    '' );
FILE_SCHEMA (( 'CONFIG_CONTROL_DESIGN' ));
ENDSEC;

DATA;
#1 = CYLINDRICAL_SURFACE ( 'NONE', #163, 1.000000000000000000 ) ;
#2 = CARTESIAN_POINT ( 'NONE',  ( 2.000000000000000000, 2.449293598294706414E-16, 0.000000000000000000 ) ) ;
#3 = DIRECTION ( 'NONE',  ( -0.000000000000000000, -0.000000000000000000, -1.000000000000000000 ) ) ;
#4 = DIRECTION ( 'NONE',  ( -1.000000000000000000, 0.000000000000000000, 0.000000000000000000 ) ) ;
#5 = DIRECTION ( 'NONE',  ( 0.000000000000000000, 0.000000000000000000, 1.000000000000000000 ) ) ;
#6 = CARTESIAN_POINT ( 'NONE',  ( -1.000000000000000000, 0.000000000000000000, 252.0000000000000000 ) ) ;
#7 = CC_DESIGN_PERSON_AND_ORGANIZATION_ASSIGNMENT ( #33, #60, ( #262 ) ) ;
#8 = DATE_TIME_ROLE ( 'creation_date' ) ;
#9 = LINE ( 'NONE', #223, #149 ) ;
#10 = ORGANIZATION ( 'NEURÈENÝ', 'NEURÈENÝ', '' ) ;
#11 = APPROVAL_PERSON_ORGANIZATION ( #104, #77, #173 ) ;
#12 = PERSON_AND_ORGANIZATION ( #208, #10 ) ;
#13 = COORDINATED_UNIVERSAL_TIME_OFFSET ( 1, 0, .AHEAD. ) ;
#14 = EDGE_LOOP ( 'NONE', ( #64, #281 ) ) ;
#15 = VECTOR ( 'NONE', #143, 1000.000000000000000 ) ;
#16 = EDGE_LOOP ( 'NONE', ( #132, #92 ) ) ;
#17 = EDGE_CURVE ( 'NONE', #229, #160, #306, .T. ) ;
#18 = VERTEX_POINT ( 'NONE', #45 ) ;
#19 = FACE_OUTER_BOUND ( 'NONE', #303, .T. ) ;
#20 = CARTESIAN_POINT ( 'NONE',  ( -2.000000000000000000, 0.000000000000000000, 2.000000000000000000 ) ) ;
#21 = CIRCLE ( 'NONE', #96, 1.000000000000000000 ) ;
#22 = ADVANCED_FACE ( 'NONE', ( #278 ), #44, .T. ) ;
#23 = FACE_OUTER_BOUND ( 'NONE', #161, .T. ) ;
#24 = PLANE ( 'NONE',  #27 ) ;
#25 = DIRECTION ( 'NONE',  ( 0.000000000000000000, 0.000000000000000000, 1.000000000000000000 ) ) ;
#26 = DIRECTION ( 'NONE',  ( 0.000000000000000000, 0.000000000000000000, 1.000000000000000000 ) ) ;
#27 = AXIS2_PLACEMENT_3D ( 'NONE', #119, #74, #260 ) ;
#28 = CARTESIAN_POINT ( 'NONE',  ( 0.000000000000000000, 0.000000000000000000, 0.000000000000000000 ) ) ;
#29 = APPROVAL_DATE_TIME ( #177, #30 ) ;
#30 = APPROVAL ( #83, 'NEURÈENÝ' ) ;
#31 = CALENDAR_DATE ( 2022, 20, 6 ) ;
#32 = CIRCLE ( 'NONE', #122, 1.000000000000000000 ) ;
#33 = PERSON_AND_ORGANIZATION ( #208, #10 ) ;
#34 = PERSON_AND_ORGANIZATION_ROLE ( 'classification_officer' ) ;
#35 = ORIENTED_EDGE ( 'NONE', *, *, #111, .T. ) ;
#36 = EDGE_CURVE ( 'NONE', #91, #18, #187, .T. ) ;
#37 = ORIENTED_EDGE ( 'NONE', *, *, #254, .T. ) ;
#38 = CC_DESIGN_APPROVAL ( #77, ( #262 ) ) ;
#39 = COORDINATED_UNIVERSAL_TIME_OFFSET ( 1, 0, .AHEAD. ) ;
#40 = EDGE_CURVE ( 'NONE', #153, #135, #276, .T. ) ;
#41 = ORIENTED_EDGE ( 'NONE', *, *, #17, .F. ) ;
#42 = DIRECTION ( 'NONE',  ( -0.000000000000000000, -0.000000000000000000, -1.000000000000000000 ) ) ;
#43 = EDGE_LOOP ( 'NONE', ( #301, #140 ) ) ;
#44 = CYLINDRICAL_SURFACE ( 'NONE', #67, 2.000000000000000000 ) ;
#45 = CARTESIAN_POINT ( 'NONE',  ( -1.200000000000000178, 1.469576158976823799E-16, 2.000000000000003553 ) ) ;
#46 = VECTOR ( 'NONE', #261, 1000.000000000000000 ) ;
#47 = CC_DESIGN_APPROVAL ( #272, ( #240 ) ) ;
#48 = DIRECTION ( 'NONE',  ( -0.000000000000000000, -0.000000000000000000, -1.000000000000000000 ) ) ;
#49 = AXIS2_PLACEMENT_3D ( 'NONE', #214, #48, #4 ) ;
#50 = EDGE_CURVE ( 'NONE', #183, #135, #279, .T. ) ;
#51 = CARTESIAN_POINT ( 'NONE',  ( 1.000000000000000000, 1.224646799147353207E-16, 2.200000000000007283 ) ) ;
#52 = CARTESIAN_POINT ( 'NONE',  ( 1.000000000000000000, 1.224646799147353207E-16, 252.0000000000000000 ) ) ;
#53 = PRODUCT_DEFINITION_SHAPE ( 'NONE', 'NONE',  #87 ) ;
#54 = DIRECTION ( 'NONE',  ( -1.000000000000000000, 0.000000000000000000, 0.000000000000000000 ) ) ;
#55 = APPROVAL_PERSON_ORGANIZATION ( #242, #30, #81 ) ;
#56 = APPROVAL_PERSON_ORGANIZATION ( #274, #272, #226 ) ;
#57 = DIRECTION ( 'NONE',  ( -0.000000000000000000, -0.000000000000000000, -1.000000000000000000 ) ) ;
#58 = ORIENTED_EDGE ( 'NONE', *, *, #111, .F. ) ;
#59 = CALENDAR_DATE ( 2022, 20, 6 ) ;
#60 = PERSON_AND_ORGANIZATION_ROLE ( 'creator' ) ;
#61 = EDGE_CURVE ( 'NONE', #18, #160, #76, .T. ) ;
#62 = ORIENTED_EDGE ( 'NONE', *, *, #40, .T. ) ;
#63 = DIRECTION ( 'NONE',  ( 0.000000000000000000, 0.000000000000000000, 1.000000000000000000 ) ) ;
#64 = ORIENTED_EDGE ( 'NONE', *, *, #213, .F. ) ;
#65 = CARTESIAN_POINT ( 'NONE',  ( 0.000000000000000000, 0.000000000000000000, 2.200000000000007283 ) ) ;
#66 = ORIENTED_EDGE ( 'NONE', *, *, #128, .F. ) ;
#67 = AXIS2_PLACEMENT_3D ( 'NONE', #159, #42, #139 ) ;
#68 = ORIENTED_EDGE ( 'NONE', *, *, #277, .F. ) ;
#69 = ORIENTED_EDGE ( 'NONE', *, *, #101, .F. ) ;
#70 = EDGE_LOOP ( 'NONE', ( #66, #300, #253, #69 ) ) ;
#71 = CARTESIAN_POINT ( 'NONE',  ( -2.000000000000000000, 0.000000000000000000, 0.000000000000000000 ) ) ;
#72 = EDGE_CURVE ( 'NONE', #91, #229, #21, .T. ) ;
#73 = DIRECTION ( 'NONE',  ( 1.000000000000000000, 0.000000000000000000, 0.000000000000000000 ) ) ;
#74 = DIRECTION ( 'NONE',  ( 0.000000000000000000, 0.000000000000000000, 1.000000000000000000 ) ) ;
#75 = CARTESIAN_POINT ( 'NONE',  ( 0.000000000000000000, 0.000000000000000000, 252.0000000000000000 ) ) ;
#76 = CIRCLE ( 'NONE', #154, 1.200000000000000178 ) ;
#77 = APPROVAL ( #82, 'NEURÈENÝ' ) ;
#78 = FACE_BOUND ( 'NONE', #114, .T. ) ;
#79 = ADVANCED_FACE ( 'NONE', ( #19 ), #178, .F. ) ;
#80 = CIRCLE ( 'NONE', #165, 2.000000000000000000 ) ;
#81 = APPROVAL_ROLE ( '' ) ;
#82 = APPROVAL_STATUS ( 'not_yet_approved' ) ;
#83 = APPROVAL_STATUS ( 'not_yet_approved' ) ;
#84 = AXIS2_PLACEMENT_3D ( 'NONE', #212, #216, #73 ) ;
#85 =( NAMED_UNIT ( * ) PLANE_ANGLE_UNIT ( ) SI_UNIT ( $, .RADIAN. ) );
#86 = DIRECTION ( 'NONE',  ( 1.000000000000000000, 0.000000000000000000, 0.000000000000000000 ) ) ;
#87 = PRODUCT_DEFINITION ( 'NEZNÁMÝ', '', #262, #232 ) ;
#88 = LOCAL_TIME ( 12, 20, 13.00000000000000000, #13 ) ;
#89 = UNCERTAINTY_MEASURE_WITH_UNIT (LENGTH_MEASURE( 1.000000000000000082E-05 ), #193, 'distance_accuracy_value', 'NONE');
#90 = DIRECTION ( 'NONE',  ( 0.000000000000000000, 0.000000000000000000, 1.000000000000000000 ) ) ;
#91 = VERTEX_POINT ( 'NONE', #305 ) ;
#92 = ORIENTED_EDGE ( 'NONE', *, *, #128, .T. ) ;
#93 = CARTESIAN_POINT ( 'NONE',  ( 0.000000000000000000, 0.000000000000000000, 2.000000000000000000 ) ) ;
#94 = DIRECTION ( 'NONE',  ( 0.000000000000000000, 0.000000000000000000, 1.000000000000000000 ) ) ;
#95 = ADVANCED_FACE ( 'NONE', ( #123 ), #1, .T. ) ;
#96 = AXIS2_PLACEMENT_3D ( 'NONE', #179, #136, #275 ) ;
#97 = CC_DESIGN_DATE_AND_TIME_ASSIGNMENT ( #206, #134, ( #240 ) ) ;
#98 = CYLINDRICAL_SURFACE ( 'NONE', #49, 1.000000000000000000 ) ;
#99 = FACE_OUTER_BOUND ( 'NONE', #16, .T. ) ;
#100 = DIRECTION ( 'NONE',  ( 1.000000000000000000, 0.000000000000000000, -0.000000000000000000 ) ) ;
#101 = EDGE_CURVE ( 'NONE', #297, #91, #239, .T. ) ;
#102 = DIRECTION ( 'NONE',  ( 1.000000000000000000, 0.000000000000000000, 0.000000000000000000 ) ) ;
#103 = MANIFOLD_SOLID_BREP ( 'Zaoblit1', #197 ) ;
#104 = PERSON_AND_ORGANIZATION ( #208, #10 ) ;
#105 = PERSON_AND_ORGANIZATION_ROLE ( 'design_supplier' ) ;
#106 = VECTOR ( 'NONE', #138, 1000.000000000000000 ) ;
#107 = FACE_OUTER_BOUND ( 'NONE', #186, .T. ) ;
#108 =( GEOMETRIC_REPRESENTATION_CONTEXT ( 3 ) GLOBAL_UNCERTAINTY_ASSIGNED_CONTEXT ( ( #89 ) ) GLOBAL_UNIT_ASSIGNED_CONTEXT ( ( #193, #85, #298 ) ) REPRESENTATION_CONTEXT ( 'NONE', 'WORKASPACE' ) );
#109 = DATE_AND_TIME ( #59, #192 ) ;
#110 = CALENDAR_DATE ( 2022, 20, 6 ) ;
#111 = EDGE_CURVE ( 'NONE', #227, #183, #290, .T. ) ;
#112 = ORIENTED_EDGE ( 'NONE', *, *, #40, .F. ) ;
#113 = APPROVAL_DATE_TIME ( #249, #272 ) ;
#114 = EDGE_LOOP ( 'NONE', ( #37, #231 ) ) ;
#115 = CALENDAR_DATE ( 2022, 20, 6 ) ;
#116 = ORIENTED_EDGE ( 'NONE', *, *, #250, .F. ) ;
#117 = ORIENTED_EDGE ( 'NONE', *, *, #254, .F. ) ;
#118 = AXIS2_PLACEMENT_3D ( 'NONE', #289, #25, #100 ) ;
#119 = CARTESIAN_POINT ( 'NONE',  ( 0.000000000000000000, 0.000000000000000000, 0.000000000000000000 ) ) ;
#120 = DIRECTION ( 'NONE',  ( 1.000000000000000000, 0.000000000000000000, 0.000000000000000000 ) ) ;
#121 = CARTESIAN_POINT ( 'NONE',  ( 0.000000000000000000, 0.000000000000000000, 252.0000000000000000 ) ) ;
#122 = AXIS2_PLACEMENT_3D ( 'NONE', #168, #211, #241 ) ;
#123 = FACE_OUTER_BOUND ( 'NONE', #207, .T. ) ;
#124 = ADVANCED_FACE ( 'NONE', ( #78, #142 ), #286, .T. ) ;
#125 = DIRECTION ( 'NONE',  ( 0.000000000000000000, 0.000000000000000000, 1.000000000000000000 ) ) ;
#126 = CARTESIAN_POINT ( 'NONE',  ( 0.000000000000000000, 0.000000000000000000, 2.000000000000000000 ) ) ;
#127 = PERSON_AND_ORGANIZATION_ROLE ( 'design_owner' ) ;
#128 = EDGE_CURVE ( 'NONE', #202, #297, #141, .T. ) ;
#129 = ORIENTED_EDGE ( 'NONE', *, *, #273, .F. ) ;
#130 = DATE_AND_TIME ( #296, #280 ) ;
#131 = DIRECTION ( 'NONE',  ( 1.000000000000000000, 0.000000000000000000, 0.000000000000000000 ) ) ;
#132 = ORIENTED_EDGE ( 'NONE', *, *, #167, .T. ) ;
#133 = MECHANICAL_CONTEXT ( 'NONE', #267, 'mechanical' ) ;
#134 = DATE_TIME_ROLE ( 'classification_date' ) ;
#135 = VERTEX_POINT ( 'NONE', #71 ) ;
#136 = DIRECTION ( 'NONE',  ( 0.000000000000000000, 0.000000000000000000, 1.000000000000000000 ) ) ;
#137 = AXIS2_PLACEMENT_3D ( 'NONE', #166, #26, #131 ) ;
#138 = DIRECTION ( 'NONE',  ( -0.000000000000000000, -0.000000000000000000, -1.000000000000000000 ) ) ;
#139 = DIRECTION ( 'NONE',  ( -1.000000000000000000, 0.000000000000000000, 0.000000000000000000 ) ) ;
#140 = ORIENTED_EDGE ( 'NONE', *, *, #218, .T. ) ;
#141 = CIRCLE ( 'NONE', #220, 1.000000000000000000 ) ;
#142 = FACE_OUTER_BOUND ( 'NONE', #43, .T. ) ;
#143 = DIRECTION ( 'NONE',  ( -0.000000000000000000, -0.000000000000000000, -1.000000000000000000 ) ) ;
#144 = AXIS2_PLACEMENT_3D ( 'NONE', #235, #90, #252 ) ;
#145 = DIRECTION ( 'NONE',  ( 1.000000000000000000, 0.000000000000000000, 0.000000000000000000 ) ) ;
#146 = CARTESIAN_POINT ( 'NONE',  ( -2.000000000000000000, 0.000000000000000000, 2.000000000000000000 ) ) ;
#147 = CARTESIAN_POINT ( 'NONE',  ( 1.200000000000000178, 0.000000000000000000, 2.000000000000003553 ) ) ;
#148 = APPROVAL_DATE_TIME ( #109, #77 ) ;
#149 = VECTOR ( 'NONE', #246, 1000.000000000000000 ) ;
#150 = SECURITY_CLASSIFICATION_LEVEL ( 'unclassified' ) ;
#151 = ORIENTED_EDGE ( 'NONE', *, *, #17, .T. ) ;
#152 = DIRECTION ( 'NONE',  ( 1.000000000000000000, 0.000000000000000000, 0.000000000000000000 ) ) ;
#153 = VERTEX_POINT ( 'NONE', #146 ) ;
#154 = AXIS2_PLACEMENT_3D ( 'NONE', #93, #283, #86 ) ;
#155 = AXIS2_PLACEMENT_3D ( 'NONE', #236, #188, #145 ) ;
#156 = DIRECTION ( 'NONE',  ( 0.000000000000000000, 0.000000000000000000, 1.000000000000000000 ) ) ;
#157 = ADVANCED_FACE ( 'NONE', ( #284 ), #98, .T. ) ;
#158 = ORIENTED_EDGE ( 'NONE', *, *, #50, .T. ) ;
#159 = CARTESIAN_POINT ( 'NONE',  ( 0.000000000000000000, 0.000000000000000000, 2.000000000000000000 ) ) ;
#160 = VERTEX_POINT ( 'NONE', #147 ) ;
#161 = EDGE_LOOP ( 'NONE', ( #182, #129, #151, #176 ) ) ;
#162 = ADVANCED_FACE ( 'NONE', ( #99 ), #189, .T. ) ;
#163 = AXIS2_PLACEMENT_3D ( 'NONE', #121, #3, #54 ) ;
#164 = FACE_OUTER_BOUND ( 'NONE', #14, .T. ) ;
#165 = AXIS2_PLACEMENT_3D ( 'NONE', #28, #125, #102 ) ;
#166 = CARTESIAN_POINT ( 'NONE',  ( 0.000000000000000000, 0.000000000000000000, 2.200000000000007283 ) ) ;
#167 = EDGE_CURVE ( 'NONE', #297, #202, #32, .T. ) ;
#168 = CARTESIAN_POINT ( 'NONE',  ( 0.000000000000000000, 0.000000000000000000, 252.0000000000000000 ) ) ;
#169 = CARTESIAN_POINT ( 'NONE',  ( 0.000000000000000000, 0.000000000000000000, 252.0000000000000000 ) ) ;
#170 = DIRECTION ( 'NONE',  ( 1.000000000000000000, 0.000000000000000000, 0.000000000000000000 ) ) ;
#171 = DIRECTION ( 'NONE',  ( -1.000000000000000000, 0.000000000000000000, 0.000000000000000000 ) ) ;
#172 = CC_DESIGN_DATE_AND_TIME_ASSIGNMENT ( #130, #8, ( #87 ) ) ;
#173 = APPROVAL_ROLE ( '' ) ;
#174 = APPLICATION_PROTOCOL_DEFINITION ( 'international standard', 'config_control_design', 1994, #302 ) ;
#175 = CIRCLE ( 'NONE', #268, 2.000000000000000000 ) ;
#176 = ORIENTED_EDGE ( 'NONE', *, *, #61, .F. ) ;
#177 = DATE_AND_TIME ( #31, #225 ) ;
#178 = TOROIDAL_SURFACE ( 'NONE', #234, 1.200000000000000178, 0.2000000000000000111 ) ;
#179 = CARTESIAN_POINT ( 'NONE',  ( 0.000000000000000000, 0.000000000000000000, 2.200000000000007283 ) ) ;
#180 = CIRCLE ( 'NONE', #287, 1.200000000000000178 ) ;
#181 = DIRECTION ( 'NONE',  ( 0.000000000000000000, 0.000000000000000000, -1.000000000000000000 ) ) ;
#182 = ORIENTED_EDGE ( 'NONE', *, *, #36, .F. ) ;
#183 = VERTEX_POINT ( 'NONE', #2 ) ;
#184 = ADVANCED_BREP_SHAPE_REPRESENTATION ( 'e3bf', ( #103, #282 ), #108 ) ;
#185 = CIRCLE ( 'NONE', #137, 1.000000000000000000 ) ;
#186 = EDGE_LOOP ( 'NONE', ( #210, #35, #158, #112 ) ) ;
#187 = CIRCLE ( 'NONE', #238, 0.2000000000000000944 ) ;
#188 = DIRECTION ( 'NONE',  ( 0.000000000000000000, 0.000000000000000000, 1.000000000000000000 ) ) ;
#189 = PLANE ( 'NONE',  #205 ) ;
#190 = CARTESIAN_POINT ( 'NONE',  ( -1.000000000000000000, 0.000000000000000000, 252.0000000000000000 ) ) ;
#191 = CARTESIAN_POINT ( 'NONE',  ( 2.000000000000000000, 2.449293598294706414E-16, 2.000000000000000000 ) ) ;
#192 = LOCAL_TIME ( 12, 20, 13.00000000000000000, #269 ) ;
#193 =( LENGTH_UNIT ( ) NAMED_UNIT ( * ) SI_UNIT ( .MILLI., .METRE. ) );
#194 = ORIENTED_EDGE ( 'NONE', *, *, #167, .F. ) ;
#195 = CC_DESIGN_PERSON_AND_ORGANIZATION_ASSIGNMENT ( #295, #127, ( #215 ) ) ;
#196 = DIRECTION ( 'NONE',  ( -0.000000000000000000, -0.000000000000000000, -1.000000000000000000 ) ) ;
#197 = CLOSED_SHELL ( 'NONE', ( #79, #157, #294, #22, #124, #198, #95, #162, #265 ) ) ;
#198 = ADVANCED_FACE ( 'NONE', ( #164 ), #24, .F. ) ;
#199 = TOROIDAL_SURFACE ( 'NONE', #84, 1.200000000000000178, 0.2000000000000000111 ) ;
#200 = CC_DESIGN_PERSON_AND_ORGANIZATION_ASSIGNMENT ( #244, #34, ( #240 ) ) ;
#201 = CARTESIAN_POINT ( 'NONE',  ( 0.000000000000000000, 0.000000000000000000, 0.000000000000000000 ) ) ;
#202 = VERTEX_POINT ( 'NONE', #52 ) ;
#203 = SHAPE_DEFINITION_REPRESENTATION ( #53, #184 ) ;
#204 = DIRECTION ( 'NONE',  ( 1.224646799147353207E-16, 1.000000000000000000, -0.000000000000000000 ) ) ;
#205 = AXIS2_PLACEMENT_3D ( 'NONE', #169, #288, #259 ) ;
#206 = DATE_AND_TIME ( #115, #88 ) ;
#207 = EDGE_LOOP ( 'NONE', ( #68, #194, #255, #271 ) ) ;
#208 = PERSON ( 'NEURÈENÝ', 'NEURÈENÝ', 'NEURÈENÝ', ('NEURÈENÝ'), ('NEURÈENÝ'), ('NEURÈENÝ') ) ;
#209 = CARTESIAN_POINT ( 'NONE',  ( 1.200000000000000178, 0.000000000000000000, 2.200000000000007283 ) ) ;
#210 = ORIENTED_EDGE ( 'NONE', *, *, #218, .F. ) ;
#211 = DIRECTION ( 'NONE',  ( 0.000000000000000000, 0.000000000000000000, 1.000000000000000000 ) ) ;
#212 = CARTESIAN_POINT ( 'NONE',  ( 0.000000000000000000, 0.000000000000000000, 2.200000000000007283 ) ) ;
#213 = EDGE_CURVE ( 'NONE', #135, #183, #80, .T. ) ;
#214 = CARTESIAN_POINT ( 'NONE',  ( 0.000000000000000000, 0.000000000000000000, 252.0000000000000000 ) ) ;
#215 = PRODUCT ( 'e3bf', 'e3bf', '', ( #133 ) ) ;
#216 = DIRECTION ( 'NONE',  ( 0.000000000000000000, 0.000000000000000000, 1.000000000000000000 ) ) ;
#217 = CARTESIAN_POINT ( 'NONE',  ( 0.000000000000000000, 0.000000000000000000, 2.000000000000000000 ) ) ;
#218 = EDGE_CURVE ( 'NONE', #227, #153, #292, .T. ) ;
#219 = CYLINDRICAL_SURFACE ( 'NONE', #230, 2.000000000000000000 ) ;
#220 = AXIS2_PLACEMENT_3D ( 'NONE', #75, #5, #263 ) ;
#221 = COORDINATED_UNIVERSAL_TIME_OFFSET ( 1, 0, .AHEAD. ) ;
#222 = PERSON_AND_ORGANIZATION ( #208, #10 ) ;
#223 = CARTESIAN_POINT ( 'NONE',  ( 1.000000000000000000, 1.224646799147353207E-16, 252.0000000000000000 ) ) ;
#224 = COORDINATED_UNIVERSAL_TIME_OFFSET ( 1, 0, .AHEAD. ) ;
#225 = LOCAL_TIME ( 12, 20, 13.00000000000000000, #224 ) ;
#226 = APPROVAL_ROLE ( '' ) ;
#227 = VERTEX_POINT ( 'NONE', #191 ) ;
#228 = APPROVAL_STATUS ( 'not_yet_approved' ) ;
#229 = VERTEX_POINT ( 'NONE', #51 ) ;
#230 = AXIS2_PLACEMENT_3D ( 'NONE', #126, #196, #171 ) ;
#231 = ORIENTED_EDGE ( 'NONE', *, *, #61, .T. ) ;
#232 = DESIGN_CONTEXT ( 'detailed design', #302, 'design' ) ;
#233 = CARTESIAN_POINT ( 'NONE',  ( -1.200000000000000178, 1.469576158976823799E-16, 2.200000000000007283 ) ) ;
#234 = AXIS2_PLACEMENT_3D ( 'NONE', #65, #156, #251 ) ;
#235 = CARTESIAN_POINT ( 'NONE',  ( 0.000000000000000000, 0.000000000000000000, 0.000000000000000000 ) ) ;
#236 = CARTESIAN_POINT ( 'NONE',  ( 0.000000000000000000, 0.000000000000000000, 2.000000000000000000 ) ) ;
#237 = CARTESIAN_POINT ( 'NONE',  ( 2.000000000000000000, 2.449293598294706414E-16, 2.000000000000000000 ) ) ;
#238 = AXIS2_PLACEMENT_3D ( 'NONE', #233, #204, #256 ) ;
#239 = LINE ( 'NONE', #190, #15 ) ;
#240 = SECURITY_CLASSIFICATION ( '', '', #150 ) ;
#241 = DIRECTION ( 'NONE',  ( 1.000000000000000000, 0.000000000000000000, 0.000000000000000000 ) ) ;
#242 = PERSON_AND_ORGANIZATION ( #208, #10 ) ;
#243 = ORIENTED_EDGE ( 'NONE', *, *, #213, .T. ) ;
#244 = PERSON_AND_ORGANIZATION ( #208, #10 ) ;
#245 = EDGE_LOOP ( 'NONE', ( #58, #116, #62, #243 ) ) ;
#246 = DIRECTION ( 'NONE',  ( -0.000000000000000000, -0.000000000000000000, -1.000000000000000000 ) ) ;
#247 = ORIENTED_EDGE ( 'NONE', *, *, #72, .F. ) ;
#248 = CC_DESIGN_APPROVAL ( #30, ( #87 ) ) ;
#249 = DATE_AND_TIME ( #110, #293 ) ;
#250 = EDGE_CURVE ( 'NONE', #153, #227, #175, .T. ) ;
#251 = DIRECTION ( 'NONE',  ( 1.000000000000000000, 0.000000000000000000, 0.000000000000000000 ) ) ;
#252 = DIRECTION ( 'NONE',  ( 1.000000000000000000, 0.000000000000000000, 0.000000000000000000 ) ) ;
#253 = ORIENTED_EDGE ( 'NONE', *, *, #273, .T. ) ;
#254 = EDGE_CURVE ( 'NONE', #160, #18, #180, .T. ) ;
#255 = ORIENTED_EDGE ( 'NONE', *, *, #101, .T. ) ;
#256 = DIRECTION ( 'NONE',  ( -1.000000000000000000, 1.224646799147351975E-16, 0.000000000000000000 ) ) ;
#257 = CARTESIAN_POINT ( 'NONE',  ( 0.000000000000000000, 0.000000000000000000, 2.000000000000000000 ) ) ;
#258 = CC_DESIGN_PERSON_AND_ORGANIZATION_ASSIGNMENT ( #222, #105, ( #262 ) ) ;
#259 = DIRECTION ( 'NONE',  ( 1.000000000000000000, 0.000000000000000000, -0.000000000000000000 ) ) ;
#260 = DIRECTION ( 'NONE',  ( 1.000000000000000000, 0.000000000000000000, -0.000000000000000000 ) ) ;
#261 = DIRECTION ( 'NONE',  ( -0.000000000000000000, -0.000000000000000000, -1.000000000000000000 ) ) ;
#262 = PRODUCT_DEFINITION_FORMATION_WITH_SPECIFIED_SOURCE ( 'LIBOVOLNÝ', '', #215, .NOT_KNOWN. ) ;
#263 = DIRECTION ( 'NONE',  ( 1.000000000000000000, 0.000000000000000000, 0.000000000000000000 ) ) ;
#264 = PERSON_AND_ORGANIZATION_ROLE ( 'creator' ) ;
#265 = ADVANCED_FACE ( 'NONE', ( #23 ), #199, .F. ) ;
#266 = APPLICATION_PROTOCOL_DEFINITION ( 'international standard', 'config_control_design', 1994, #267 ) ;
#267 = APPLICATION_CONTEXT ( 'configuration controlled 3d designs of mechanical parts and assemblies' ) ;
#268 = AXIS2_PLACEMENT_3D ( 'NONE', #217, #94, #170 ) ;
#269 = COORDINATED_UNIVERSAL_TIME_OFFSET ( 1, 0, .AHEAD. ) ;
#270 = ORIENTED_EDGE ( 'NONE', *, *, #36, .T. ) ;
#271 = ORIENTED_EDGE ( 'NONE', *, *, #72, .T. ) ;
#272 = APPROVAL ( #228, 'NEURÈENÝ' ) ;
#273 = EDGE_CURVE ( 'NONE', #229, #91, #185, .T. ) ;
#274 = PERSON_AND_ORGANIZATION ( #208, #10 ) ;
#275 = DIRECTION ( 'NONE',  ( 1.000000000000000000, 0.000000000000000000, 0.000000000000000000 ) ) ;
#276 = LINE ( 'NONE', #20, #106 ) ;
#277 = EDGE_CURVE ( 'NONE', #202, #229, #9, .T. ) ;
#278 = FACE_OUTER_BOUND ( 'NONE', #245, .T. ) ;
#279 = CIRCLE ( 'NONE', #144, 2.000000000000000000 ) ;
#280 = LOCAL_TIME ( 12, 20, 13.00000000000000000, #221 ) ;
#281 = ORIENTED_EDGE ( 'NONE', *, *, #50, .F. ) ;
#282 = AXIS2_PLACEMENT_3D ( 'NONE', #201, #63, #152 ) ;
#283 = DIRECTION ( 'NONE',  ( -0.000000000000000000, -0.000000000000000000, -1.000000000000000000 ) ) ;
#284 = FACE_OUTER_BOUND ( 'NONE', #70, .T. ) ;
#285 = CC_DESIGN_PERSON_AND_ORGANIZATION_ASSIGNMENT ( #12, #264, ( #87 ) ) ;
#286 = PLANE ( 'NONE',  #118 ) ;
#287 = AXIS2_PLACEMENT_3D ( 'NONE', #257, #57, #120 ) ;
#288 = DIRECTION ( 'NONE',  ( 0.000000000000000000, 0.000000000000000000, 1.000000000000000000 ) ) ;
#289 = CARTESIAN_POINT ( 'NONE',  ( 0.000000000000000000, 0.000000000000000000, 2.000000000000000000 ) ) ;
#290 = LINE ( 'NONE', #237, #46 ) ;
#291 = CC_DESIGN_SECURITY_CLASSIFICATION ( #240, ( #262 ) ) ;
#292 = CIRCLE ( 'NONE', #155, 2.000000000000000000 ) ;
#293 = LOCAL_TIME ( 12, 20, 13.00000000000000000, #39 ) ;
#294 = ADVANCED_FACE ( 'NONE', ( #107 ), #219, .T. ) ;
#295 = PERSON_AND_ORGANIZATION ( #208, #10 ) ;
#296 = CALENDAR_DATE ( 2022, 20, 6 ) ;
#297 = VERTEX_POINT ( 'NONE', #6 ) ;
#298 =( NAMED_UNIT ( * ) SI_UNIT ( $, .STERADIAN. ) SOLID_ANGLE_UNIT ( ) );
#299 = AXIS2_PLACEMENT_3D ( 'NONE', #209, #307, #181 ) ;
#300 = ORIENTED_EDGE ( 'NONE', *, *, #277, .T. ) ;
#301 = ORIENTED_EDGE ( 'NONE', *, *, #250, .T. ) ;
#302 = APPLICATION_CONTEXT ( 'configuration controlled 3d designs of mechanical parts and assemblies' ) ;
#303 = EDGE_LOOP ( 'NONE', ( #247, #270, #117, #41 ) ) ;
#304 = PRODUCT_RELATED_PRODUCT_CATEGORY ( 'detail', '', ( #215 ) ) ;
#305 = CARTESIAN_POINT ( 'NONE',  ( -1.000000000000000000, 0.000000000000000000, 2.200000000000007283 ) ) ;
#306 = CIRCLE ( 'NONE', #299, 0.2000000000000000944 ) ;
#307 = DIRECTION ( 'NONE',  ( 0.000000000000000000, -1.000000000000000000, 0.000000000000000000 ) ) ;
ENDSEC;
END-ISO-10303-21;
