ISO-10303-21;
HEADER;
FILE_DESCRIPTION (( 'STEP AP203' ),
    '1' );
FILE_NAME ('59e4.STEP',
    '2022-06-20T09:31:24',
    ( '' ),
    ( '' ),
    'SwSTEP 2.0',
    'SolidWorks 2019',
    '' );
FILE_SCHEMA (( 'CONFIG_CONTROL_DESIGN' ));
ENDSEC;

DATA;
#1 = CARTESIAN_POINT ( 'NONE',  ( 0.000000000000000000, 0.000000000000000000, 0.000000000000000000 ) ) ;
#2 = PERSON_AND_ORGANIZATION_ROLE ( 'classification_officer' ) ;
#3 = PERSON_AND_ORGANIZATION ( #90, #287 ) ;
#4 = COORDINATED_UNIVERSAL_TIME_OFFSET ( 1, 0, .AHEAD. ) ;
#5 = PERSON_AND_ORGANIZATION_ROLE ( 'design_owner' ) ;
#6 = AXIS2_PLACEMENT_3D ( 'NONE', #23, #20, #102 ) ;
#7 = CIRCLE ( 'NONE', #115, 6.099999999999999645 ) ;
#8 = ORIENTED_EDGE ( 'NONE', *, *, #100, .T. ) ;
#9 = COORDINATED_UNIVERSAL_TIME_OFFSET ( 1, 0, .AHEAD. ) ;
#10 = ADVANCED_FACE ( 'NONE', ( #276 ), #286, .F. ) ;
#11 = FACE_OUTER_BOUND ( 'NONE', #118, .T. ) ;
#12 = ORIENTED_EDGE ( 'NONE', *, *, #243, .F. ) ;
#13 = LINE ( 'NONE', #295, #147 ) ;
#14 = EDGE_LOOP ( 'NONE', ( #205, #187 ) ) ;
#15 = CARTESIAN_POINT ( 'NONE',  ( -9.000000000000000000, 0.000000000000000000, 7.000000000000000000 ) ) ;
#16 = DIRECTION ( 'NONE',  ( 0.000000000000000000, 0.000000000000000000, -1.000000000000000000 ) ) ;
#17 = VERTEX_POINT ( 'NONE', #15 ) ;
#18 = CARTESIAN_POINT ( 'NONE',  ( 0.000000000000000000, 0.000000000000000000, 7.199999999999998401 ) ) ;
#19 = EDGE_LOOP ( 'NONE', ( #250, #44 ) ) ;
#20 = DIRECTION ( 'NONE',  ( 0.000000000000000000, 0.000000000000000000, 1.000000000000000000 ) ) ;
#21 = CIRCLE ( 'NONE', #158, 6.099999999999999645 ) ;
#22 = ORIENTED_EDGE ( 'NONE', *, *, #54, .F. ) ;
#23 = CARTESIAN_POINT ( 'NONE',  ( 0.000000000000000000, 0.000000000000000000, 7.000000000000000000 ) ) ;
#24 = EDGE_CURVE ( 'NONE', #17, #88, #186, .T. ) ;
#25 = PLANE ( 'NONE',  #39 ) ;
#26 = CARTESIAN_POINT ( 'NONE',  ( -6.099999999999999645, 0.000000000000000000, 132.0000000000000000 ) ) ;
#27 = CARTESIAN_POINT ( 'NONE',  ( 0.000000000000000000, 0.000000000000000000, 7.000000000000000000 ) ) ;
#28 = CC_DESIGN_PERSON_AND_ORGANIZATION_ASSIGNMENT ( #198, #104, ( #194 ) ) ;
#29 = SECURITY_CLASSIFICATION_LEVEL ( 'unclassified' ) ;
#30 = APPROVAL_STATUS ( 'not_yet_approved' ) ;
#31 = CALENDAR_DATE ( 2022, 20, 6 ) ;
#32 = PERSON_AND_ORGANIZATION_ROLE ( 'design_supplier' ) ;
#33 = APPLICATION_PROTOCOL_DEFINITION ( 'international standard', 'config_control_design', 1994, #85 ) ;
#34 = CIRCLE ( 'NONE', #277, 0.1999999999999996503 ) ;
#35 = LINE ( 'NONE', #179, #235 ) ;
#36 = FACE_OUTER_BOUND ( 'NONE', #96, .T. ) ;
#37 = CARTESIAN_POINT ( 'NONE',  ( 0.000000000000000000, 0.000000000000000000, 132.0000000000000000 ) ) ;
#38 = APPROVAL_PERSON_ORGANIZATION ( #60, #74, #170 ) ;
#39 = AXIS2_PLACEMENT_3D ( 'NONE', #257, #305, #98 ) ;
#40 = ORIENTED_EDGE ( 'NONE', *, *, #280, .F. ) ;
#41 = ORIENTED_EDGE ( 'NONE', *, *, #237, .F. ) ;
#42 = DIRECTION ( 'NONE',  ( -0.000000000000000000, -0.000000000000000000, -1.000000000000000000 ) ) ;
#43 = CC_DESIGN_PERSON_AND_ORGANIZATION_ASSIGNMENT ( #79, #2, ( #47 ) ) ;
#44 = ORIENTED_EDGE ( 'NONE', *, *, #237, .T. ) ;
#45 = FACE_BOUND ( 'NONE', #14, .T. ) ;
#46 = VERTEX_POINT ( 'NONE', #160 ) ;
#47 = SECURITY_CLASSIFICATION ( '', '', #29 ) ;
#48 = EDGE_CURVE ( 'NONE', #138, #293, #306, .T. ) ;
#49 = PLANE ( 'NONE',  #109 ) ;
#50 = DIRECTION ( 'NONE',  ( 1.000000000000000000, 0.000000000000000000, -0.000000000000000000 ) ) ;
#51 = UNCERTAINTY_MEASURE_WITH_UNIT (LENGTH_MEASURE( 1.000000000000000082E-05 ), #304, 'distance_accuracy_value', 'NONE');
#52 = APPROVAL_PERSON_ORGANIZATION ( #128, #185, #217 ) ;
#53 = DIRECTION ( 'NONE',  ( 0.000000000000000000, 0.000000000000000000, 1.000000000000000000 ) ) ;
#54 = EDGE_CURVE ( 'NONE', #93, #226, #300, .T. ) ;
#55 = APPLICATION_CONTEXT ( 'configuration controlled 3d designs of mechanical parts and assemblies' ) ;
#56 = EDGE_CURVE ( 'NONE', #232, #182, #7, .T. ) ;
#57 = DATE_TIME_ROLE ( 'classification_date' ) ;
#58 = AXIS2_PLACEMENT_3D ( 'NONE', #274, #279, #16 ) ;
#59 = DATE_TIME_ROLE ( 'creation_date' ) ;
#60 = PERSON_AND_ORGANIZATION ( #90, #287 ) ;
#61 = AXIS2_PLACEMENT_3D ( 'NONE', #127, #216, #241 ) ;
#62 = DIRECTION ( 'NONE',  ( -0.000000000000000000, -0.000000000000000000, -1.000000000000000000 ) ) ;
#63 = DIRECTION ( 'NONE',  ( 1.000000000000000000, 0.000000000000000000, 0.000000000000000000 ) ) ;
#64 = ORIENTED_EDGE ( 'NONE', *, *, #111, .T. ) ;
#65 = LOCAL_TIME ( 11, 31, 24.00000000000000000, #75 ) ;
#66 = AXIS2_PLACEMENT_3D ( 'NONE', #233, #73, #124 ) ;
#67 = EDGE_LOOP ( 'NONE', ( #22, #301, #161, #208 ) ) ;
#68 = ORIENTED_EDGE ( 'NONE', *, *, #54, .T. ) ;
#69 = CARTESIAN_POINT ( 'NONE',  ( 0.000000000000000000, 0.000000000000000000, 0.000000000000000000 ) ) ;
#70 = ADVANCED_FACE ( 'NONE', ( #36 ), #202, .T. ) ;
#71 = ORIENTED_EDGE ( 'NONE', *, *, #215, .F. ) ;
#72 = DIRECTION ( 'NONE',  ( -1.000000000000000000, 0.000000000000000000, 0.000000000000000000 ) ) ;
#73 = DIRECTION ( 'NONE',  ( 0.000000000000000000, 0.000000000000000000, 1.000000000000000000 ) ) ;
#74 = APPROVAL ( #30, 'NEURÈENÝ' ) ;
#75 = COORDINATED_UNIVERSAL_TIME_OFFSET ( 1, 0, .AHEAD. ) ;
#76 = TOROIDAL_SURFACE ( 'NONE', #154, 6.299999999999998934, 0.2000000000000000111 ) ;
#77 = APPROVAL_DATE_TIME ( #107, #83 ) ;
#78 = EDGE_CURVE ( 'NONE', #84, #46, #92, .T. ) ;
#79 = PERSON_AND_ORGANIZATION ( #90, #287 ) ;
#80 = CALENDAR_DATE ( 2022, 20, 6 ) ;
#81 = APPROVAL_PERSON_ORGANIZATION ( #3, #83, #290 ) ;
#82 = PERSON_AND_ORGANIZATION ( #90, #287 ) ;
#83 = APPROVAL ( #152, 'NEURÈENÝ' ) ;
#84 = VERTEX_POINT ( 'NONE', #113 ) ;
#85 = APPLICATION_CONTEXT ( 'configuration controlled 3d designs of mechanical parts and assemblies' ) ;
#86 = DIRECTION ( 'NONE',  ( 0.000000000000000000, 0.000000000000000000, 1.000000000000000000 ) ) ;
#87 = CC_DESIGN_DATE_AND_TIME_ASSIGNMENT ( #129, #57, ( #47 ) ) ;
#88 = VERTEX_POINT ( 'NONE', #247 ) ;
#89 = DIRECTION ( 'NONE',  ( 1.000000000000000000, 0.000000000000000000, 0.000000000000000000 ) ) ;
#90 = PERSON ( 'NEURÈENÝ', 'NEURÈENÝ', 'NEURÈENÝ', ('NEURÈENÝ'), ('NEURÈENÝ'), ('NEURÈENÝ') ) ;
#91 = DIRECTION ( 'NONE',  ( 1.000000000000000000, 0.000000000000000000, 0.000000000000000000 ) ) ;
#92 = CIRCLE ( 'NONE', #183, 6.299999999999998934 ) ;
#93 = VERTEX_POINT ( 'NONE', #245 ) ;
#94 = CIRCLE ( 'NONE', #238, 6.099999999999999645 ) ;
#95 = DIRECTION ( 'NONE',  ( 1.000000000000000000, 0.000000000000000000, 0.000000000000000000 ) ) ;
#96 = EDGE_LOOP ( 'NONE', ( #229, #200, #143, #159 ) ) ;
#97 = CARTESIAN_POINT ( 'NONE',  ( 0.000000000000000000, 0.000000000000000000, 7.199999999999998401 ) ) ;
#98 = DIRECTION ( 'NONE',  ( 1.000000000000000000, 0.000000000000000000, -0.000000000000000000 ) ) ;
#99 = CIRCLE ( 'NONE', #58, 0.1999999999999996503 ) ;
#100 = EDGE_CURVE ( 'NONE', #138, #182, #35, .T. ) ;
#101 = FACE_OUTER_BOUND ( 'NONE', #177, .T. ) ;
#102 = DIRECTION ( 'NONE',  ( 1.000000000000000000, 0.000000000000000000, 0.000000000000000000 ) ) ;
#103 = ADVANCED_FACE ( 'NONE', ( #11 ), #76, .F. ) ;
#104 = PERSON_AND_ORGANIZATION_ROLE ( 'creator' ) ;
#105 = APPROVAL_STATUS ( 'not_yet_approved' ) ;
#106 = CIRCLE ( 'NONE', #146, 6.299999999999998934 ) ;
#107 = DATE_AND_TIME ( #80, #248 ) ;
#108 = CC_DESIGN_APPROVAL ( #185, ( #47 ) ) ;
#109 = AXIS2_PLACEMENT_3D ( 'NONE', #121, #142, #211 ) ;
#110 = EDGE_LOOP ( 'NONE', ( #40, #12, #278, #120 ) ) ;
#111 = EDGE_CURVE ( 'NONE', #293, #138, #21, .T. ) ;
#112 = ORIENTED_EDGE ( 'NONE', *, *, #48, .T. ) ;
#113 = CARTESIAN_POINT ( 'NONE',  ( -6.299999999999998934, 7.715274834628324392E-16, 6.999999999999999112 ) ) ;
#114 = DIRECTION ( 'NONE',  ( -0.000000000000000000, -0.000000000000000000, -1.000000000000000000 ) ) ;
#115 = AXIS2_PLACEMENT_3D ( 'NONE', #249, #246, #63 ) ;
#116 = CYLINDRICAL_SURFACE ( 'NONE', #173, 9.000000000000000000 ) ;
#117 = CARTESIAN_POINT ( 'NONE',  ( 0.000000000000000000, 0.000000000000000000, 7.000000000000000000 ) ) ;
#118 = EDGE_LOOP ( 'NONE', ( #222, #201, #296, #155 ) ) ;
#119 = CARTESIAN_POINT ( 'NONE',  ( 0.000000000000000000, 0.000000000000000000, 132.0000000000000000 ) ) ;
#120 = ORIENTED_EDGE ( 'NONE', *, *, #78, .F. ) ;
#121 = CARTESIAN_POINT ( 'NONE',  ( 0.000000000000000000, 0.000000000000000000, 7.000000000000000000 ) ) ;
#122 = ORIENTED_EDGE ( 'NONE', *, *, #291, .F. ) ;
#123 = FACE_OUTER_BOUND ( 'NONE', #19, .T. ) ;
#124 = DIRECTION ( 'NONE',  ( 1.000000000000000000, 0.000000000000000000, 0.000000000000000000 ) ) ;
#125 = APPLICATION_PROTOCOL_DEFINITION ( 'international standard', 'config_control_design', 1994, #55 ) ;
#126 = MANIFOLD_SOLID_BREP ( 'Zaoblit1', #199 ) ;
#127 = CARTESIAN_POINT ( 'NONE',  ( 0.000000000000000000, 0.000000000000000000, 0.000000000000000000 ) ) ;
#128 = PERSON_AND_ORGANIZATION ( #90, #287 ) ;
#129 = DATE_AND_TIME ( #31, #230 ) ;
#130 = PRODUCT_DEFINITION ( 'NEZNÁMÝ', '', #194, #163 ) ;
#131 = AXIS2_PLACEMENT_3D ( 'NONE', #69, #284, #260 ) ;
#132 = COORDINATED_UNIVERSAL_TIME_OFFSET ( 1, 0, .AHEAD. ) ;
#133 = CARTESIAN_POINT ( 'NONE',  ( 6.099999999999999645, 7.470345474798854293E-16, 132.0000000000000000 ) ) ;
#134 = CARTESIAN_POINT ( 'NONE',  ( 0.000000000000000000, 0.000000000000000000, 132.0000000000000000 ) ) ;
#135 = CARTESIAN_POINT ( 'NONE',  ( -9.000000000000000000, 0.000000000000000000, 7.000000000000000000 ) ) ;
#136 = VECTOR ( 'NONE', #225, 1000.000000000000000 ) ;
#137 = DIRECTION ( 'NONE',  ( 0.000000000000000000, 0.000000000000000000, 1.000000000000000000 ) ) ;
#138 = VERTEX_POINT ( 'NONE', #133 ) ;
#139 = DIRECTION ( 'NONE',  ( -0.000000000000000000, -0.000000000000000000, -1.000000000000000000 ) ) ;
#140 = EDGE_CURVE ( 'NONE', #182, #46, #99, .T. ) ;
#141 = EDGE_LOOP ( 'NONE', ( #64, #112 ) ) ;
#142 = DIRECTION ( 'NONE',  ( 0.000000000000000000, 0.000000000000000000, 1.000000000000000000 ) ) ;
#143 = ORIENTED_EDGE ( 'NONE', *, *, #169, .T. ) ;
#144 = DIRECTION ( 'NONE',  ( -1.000000000000000000, 1.224646799147353454E-16, 0.000000000000000000 ) ) ;
#145 = FACE_OUTER_BOUND ( 'NONE', #141, .T. ) ;
#146 = AXIS2_PLACEMENT_3D ( 'NONE', #27, #209, #282 ) ;
#147 = VECTOR ( 'NONE', #114, 1000.000000000000000 ) ;
#148 =( NAMED_UNIT ( * ) SI_UNIT ( $, .STERADIAN. ) SOLID_ANGLE_UNIT ( ) );
#149 = DATE_AND_TIME ( #262, #65 ) ;
#150 = CIRCLE ( 'NONE', #224, 9.000000000000000000 ) ;
#151 = ADVANCED_FACE ( 'NONE', ( #228 ), #298, .T. ) ;
#152 = APPROVAL_STATUS ( 'not_yet_approved' ) ;
#153 = DIRECTION ( 'NONE',  ( -0.000000000000000000, -0.000000000000000000, -1.000000000000000000 ) ) ;
#154 = AXIS2_PLACEMENT_3D ( 'NONE', #18, #203, #95 ) ;
#155 = ORIENTED_EDGE ( 'NONE', *, *, #140, .F. ) ;
#156 = CARTESIAN_POINT ( 'NONE',  ( 0.000000000000000000, 0.000000000000000000, 132.0000000000000000 ) ) ;
#157 = DIRECTION ( 'NONE',  ( -0.000000000000000000, -0.000000000000000000, -1.000000000000000000 ) ) ;
#158 = AXIS2_PLACEMENT_3D ( 'NONE', #134, #86, #221 ) ;
#159 = ORIENTED_EDGE ( 'NONE', *, *, #56, .T. ) ;
#160 = CARTESIAN_POINT ( 'NONE',  ( 6.299999999999998934, 0.000000000000000000, 6.999999999999999112 ) ) ;
#161 = ORIENTED_EDGE ( 'NONE', *, *, #24, .T. ) ;
#162 = DIRECTION ( 'NONE',  ( 1.224646799147353207E-16, 1.000000000000000000, -0.000000000000000000 ) ) ;
#163 = DESIGN_CONTEXT ( 'detailed design', #85, 'design' ) ;
#164 = CARTESIAN_POINT ( 'NONE',  ( 9.000000000000000000, 1.102182119232617714E-15, 0.000000000000000000 ) ) ;
#165 = CARTESIAN_POINT ( 'NONE',  ( -6.299999999999998934, 7.715274834628324392E-16, 7.199999999999998401 ) ) ;
#166 = DIRECTION ( 'NONE',  ( -1.000000000000000000, 0.000000000000000000, 0.000000000000000000 ) ) ;
#167 = AXIS2_PLACEMENT_3D ( 'NONE', #192, #213, #72 ) ;
#168 = MECHANICAL_CONTEXT ( 'NONE', #55, 'mechanical' ) ;
#169 = EDGE_CURVE ( 'NONE', #293, #232, #13, .T. ) ;
#170 = APPROVAL_ROLE ( '' ) ;
#171 = ADVANCED_FACE ( 'NONE', ( #272 ), #116, .T. ) ;
#172 = CALENDAR_DATE ( 2022, 20, 6 ) ;
#173 = AXIS2_PLACEMENT_3D ( 'NONE', #297, #234, #166 ) ;
#174 = CALENDAR_DATE ( 2022, 20, 6 ) ;
#175 = PRODUCT_RELATED_PRODUCT_CATEGORY ( 'detail', '', ( #273 ) ) ;
#176 = EDGE_CURVE ( 'NONE', #17, #93, #212, .T. ) ;
#177 = EDGE_LOOP ( 'NONE', ( #122, #71 ) ) ;
#178 = DIRECTION ( 'NONE',  ( 0.000000000000000000, 0.000000000000000000, 1.000000000000000000 ) ) ;
#179 = CARTESIAN_POINT ( 'NONE',  ( 6.099999999999999645, 7.470345474798854293E-16, 132.0000000000000000 ) ) ;
#180 = CC_DESIGN_PERSON_AND_ORGANIZATION_ASSIGNMENT ( #82, #5, ( #273 ) ) ;
#181 = AXIS2_PLACEMENT_3D ( 'NONE', #156, #42, #223 ) ;
#182 = VERTEX_POINT ( 'NONE', #253 ) ;
#183 = AXIS2_PLACEMENT_3D ( 'NONE', #117, #139, #89 ) ;
#184 = ORIENTED_EDGE ( 'NONE', *, *, #215, .T. ) ;
#185 = APPROVAL ( #105, 'NEURÈENÝ' ) ;
#186 = LINE ( 'NONE', #135, #136 ) ;
#187 = ORIENTED_EDGE ( 'NONE', *, *, #78, .T. ) ;
#188 = DIRECTION ( 'NONE',  ( 0.000000000000000000, 0.000000000000000000, 1.000000000000000000 ) ) ;
#189 = CARTESIAN_POINT ( 'NONE',  ( -6.099999999999999645, 0.000000000000000000, 7.199999999999998401 ) ) ;
#190 = AXIS2_PLACEMENT_3D ( 'NONE', #37, #178, #270 ) ;
#191 = DIRECTION ( 'NONE',  ( 1.000000000000000000, 0.000000000000000000, 0.000000000000000000 ) ) ;
#192 = CARTESIAN_POINT ( 'NONE',  ( 0.000000000000000000, 0.000000000000000000, 7.000000000000000000 ) ) ;
#193 = CC_DESIGN_DATE_AND_TIME_ASSIGNMENT ( #149, #59, ( #130 ) ) ;
#194 = PRODUCT_DEFINITION_FORMATION_WITH_SPECIFIED_SOURCE ( 'LIBOVOLNÝ', '', #273, .NOT_KNOWN. ) ;
#195 = COORDINATED_UNIVERSAL_TIME_OFFSET ( 1, 0, .AHEAD. ) ;
#196 = CIRCLE ( 'NONE', #6, 9.000000000000000000 ) ;
#197 =( GEOMETRIC_REPRESENTATION_CONTEXT ( 3 ) GLOBAL_UNCERTAINTY_ASSIGNED_CONTEXT ( ( #51 ) ) GLOBAL_UNIT_ASSIGNED_CONTEXT ( ( #304, #258, #148 ) ) REPRESENTATION_CONTEXT ( 'NONE', 'WORKASPACE' ) );
#198 = PERSON_AND_ORGANIZATION ( #90, #287 ) ;
#199 = CLOSED_SHELL ( 'NONE', ( #103, #151, #171, #271, #259, #219, #70, #240, #10 ) ) ;
#200 = ORIENTED_EDGE ( 'NONE', *, *, #111, .F. ) ;
#201 = ORIENTED_EDGE ( 'NONE', *, *, #280, .T. ) ;
#202 = CYLINDRICAL_SURFACE ( 'NONE', #181, 6.099999999999999645 ) ;
#203 = DIRECTION ( 'NONE',  ( 0.000000000000000000, 0.000000000000000000, 1.000000000000000000 ) ) ;
#204 = CARTESIAN_POINT ( 'NONE',  ( 9.000000000000000000, 1.102182119232617714E-15, 7.000000000000000000 ) ) ;
#205 = ORIENTED_EDGE ( 'NONE', *, *, #263, .T. ) ;
#206 = CC_DESIGN_APPROVAL ( #83, ( #194 ) ) ;
#207 = AXIS2_PLACEMENT_3D ( 'NONE', #119, #153, #220 ) ;
#208 = ORIENTED_EDGE ( 'NONE', *, *, #291, .T. ) ;
#209 = DIRECTION ( 'NONE',  ( -0.000000000000000000, -0.000000000000000000, -1.000000000000000000 ) ) ;
#210 = ORIENTED_EDGE ( 'NONE', *, *, #243, .T. ) ;
#211 = DIRECTION ( 'NONE',  ( 1.000000000000000000, 0.000000000000000000, -0.000000000000000000 ) ) ;
#212 = CIRCLE ( 'NONE', #66, 9.000000000000000000 ) ;
#213 = DIRECTION ( 'NONE',  ( -0.000000000000000000, -0.000000000000000000, -1.000000000000000000 ) ) ;
#214 = DATE_AND_TIME ( #172, #265 ) ;
#215 = EDGE_CURVE ( 'NONE', #226, #88, #150, .T. ) ;
#216 = DIRECTION ( 'NONE',  ( 0.000000000000000000, 0.000000000000000000, 1.000000000000000000 ) ) ;
#217 = APPROVAL_ROLE ( '' ) ;
#218 = VECTOR ( 'NONE', #62, 1000.000000000000000 ) ;
#219 = ADVANCED_FACE ( 'NONE', ( #101 ), #231, .F. ) ;
#220 = DIRECTION ( 'NONE',  ( -1.000000000000000000, 0.000000000000000000, 0.000000000000000000 ) ) ;
#221 = DIRECTION ( 'NONE',  ( 1.000000000000000000, 0.000000000000000000, 0.000000000000000000 ) ) ;
#222 = ORIENTED_EDGE ( 'NONE', *, *, #56, .F. ) ;
#223 = DIRECTION ( 'NONE',  ( -1.000000000000000000, 0.000000000000000000, 0.000000000000000000 ) ) ;
#224 = AXIS2_PLACEMENT_3D ( 'NONE', #283, #53, #303 ) ;
#225 = DIRECTION ( 'NONE',  ( -0.000000000000000000, -0.000000000000000000, -1.000000000000000000 ) ) ;
#226 = VERTEX_POINT ( 'NONE', #164 ) ;
#227 = PRODUCT_DEFINITION_SHAPE ( 'NONE', 'NONE',  #130 ) ;
#228 = FACE_OUTER_BOUND ( 'NONE', #254, .T. ) ;
#229 = ORIENTED_EDGE ( 'NONE', *, *, #100, .F. ) ;
#230 = LOCAL_TIME ( 11, 31, 24.00000000000000000, #132 ) ;
#231 = PLANE ( 'NONE',  #244 ) ;
#232 = VERTEX_POINT ( 'NONE', #189 ) ;
#233 = CARTESIAN_POINT ( 'NONE',  ( 0.000000000000000000, 0.000000000000000000, 7.000000000000000000 ) ) ;
#234 = DIRECTION ( 'NONE',  ( -0.000000000000000000, -0.000000000000000000, -1.000000000000000000 ) ) ;
#235 = VECTOR ( 'NONE', #157, 1000.000000000000000 ) ;
#236 = LOCAL_TIME ( 11, 31, 24.00000000000000000, #195 ) ;
#237 = EDGE_CURVE ( 'NONE', #93, #17, #196, .T. ) ;
#238 = AXIS2_PLACEMENT_3D ( 'NONE', #97, #188, #191 ) ;
#239 = PERSON_AND_ORGANIZATION ( #90, #287 ) ;
#240 = ADVANCED_FACE ( 'NONE', ( #145 ), #25, .T. ) ;
#241 = DIRECTION ( 'NONE',  ( 1.000000000000000000, 0.000000000000000000, 0.000000000000000000 ) ) ;
#242 = PERSON_AND_ORGANIZATION ( #90, #287 ) ;
#243 = EDGE_CURVE ( 'NONE', #182, #232, #94, .T. ) ;
#244 = AXIS2_PLACEMENT_3D ( 'NONE', #1, #256, #50 ) ;
#245 = CARTESIAN_POINT ( 'NONE',  ( 9.000000000000000000, 1.102182119232617714E-15, 7.000000000000000000 ) ) ;
#246 = DIRECTION ( 'NONE',  ( 0.000000000000000000, 0.000000000000000000, 1.000000000000000000 ) ) ;
#247 = CARTESIAN_POINT ( 'NONE',  ( -9.000000000000000000, 0.000000000000000000, 0.000000000000000000 ) ) ;
#248 = LOCAL_TIME ( 11, 31, 24.00000000000000000, #4 ) ;
#249 = CARTESIAN_POINT ( 'NONE',  ( 0.000000000000000000, 0.000000000000000000, 7.199999999999998401 ) ) ;
#250 = ORIENTED_EDGE ( 'NONE', *, *, #176, .T. ) ;
#251 = CARTESIAN_POINT ( 'NONE',  ( 0.000000000000000000, 0.000000000000000000, 7.199999999999998401 ) ) ;
#252 = ORIENTED_EDGE ( 'NONE', *, *, #48, .F. ) ;
#253 = CARTESIAN_POINT ( 'NONE',  ( 6.099999999999999645, 7.470345474798854293E-16, 7.199999999999998401 ) ) ;
#254 = EDGE_LOOP ( 'NONE', ( #252, #8, #210, #299 ) ) ;
#255 = CC_DESIGN_SECURITY_CLASSIFICATION ( #47, ( #194 ) ) ;
#256 = DIRECTION ( 'NONE',  ( 0.000000000000000000, 0.000000000000000000, 1.000000000000000000 ) ) ;
#257 = CARTESIAN_POINT ( 'NONE',  ( 0.000000000000000000, 0.000000000000000000, 132.0000000000000000 ) ) ;
#258 =( NAMED_UNIT ( * ) PLANE_ANGLE_UNIT ( ) SI_UNIT ( $, .RADIAN. ) );
#259 = ADVANCED_FACE ( 'NONE', ( #45, #123 ), #49, .T. ) ;
#260 = DIRECTION ( 'NONE',  ( 1.000000000000000000, 0.000000000000000000, 0.000000000000000000 ) ) ;
#261 = CIRCLE ( 'NONE', #131, 9.000000000000000000 ) ;
#262 = CALENDAR_DATE ( 2022, 20, 6 ) ;
#263 = EDGE_CURVE ( 'NONE', #46, #84, #106, .T. ) ;
#264 = SHAPE_DEFINITION_REPRESENTATION ( #227, #275 ) ;
#265 = LOCAL_TIME ( 11, 31, 24.00000000000000000, #9 ) ;
#266 = APPROVAL_DATE_TIME ( #214, #74 ) ;
#267 = DATE_AND_TIME ( #174, #236 ) ;
#268 = CC_DESIGN_PERSON_AND_ORGANIZATION_ASSIGNMENT ( #239, #289, ( #130 ) ) ;
#269 = CC_DESIGN_APPROVAL ( #74, ( #130 ) ) ;
#270 = DIRECTION ( 'NONE',  ( 1.000000000000000000, 0.000000000000000000, 0.000000000000000000 ) ) ;
#271 = ADVANCED_FACE ( 'NONE', ( #285 ), #307, .T. ) ;
#272 = FACE_OUTER_BOUND ( 'NONE', #294, .T. ) ;
#273 = PRODUCT ( '59e4', '59e4', '', ( #168 ) ) ;
#274 = CARTESIAN_POINT ( 'NONE',  ( 6.299999999999998934, 0.000000000000000000, 7.199999999999998401 ) ) ;
#275 = ADVANCED_BREP_SHAPE_REPRESENTATION ( '59e4', ( #126, #61 ), #197 ) ;
#276 = FACE_OUTER_BOUND ( 'NONE', #110, .T. ) ;
#277 = AXIS2_PLACEMENT_3D ( 'NONE', #165, #162, #144 ) ;
#278 = ORIENTED_EDGE ( 'NONE', *, *, #140, .T. ) ;
#279 = DIRECTION ( 'NONE',  ( 0.000000000000000000, -1.000000000000000000, 0.000000000000000000 ) ) ;
#280 = EDGE_CURVE ( 'NONE', #232, #84, #34, .T. ) ;
#281 = ORIENTED_EDGE ( 'NONE', *, *, #24, .F. ) ;
#282 = DIRECTION ( 'NONE',  ( 1.000000000000000000, 0.000000000000000000, 0.000000000000000000 ) ) ;
#283 = CARTESIAN_POINT ( 'NONE',  ( 0.000000000000000000, 0.000000000000000000, 0.000000000000000000 ) ) ;
#284 = DIRECTION ( 'NONE',  ( 0.000000000000000000, 0.000000000000000000, 1.000000000000000000 ) ) ;
#285 = FACE_OUTER_BOUND ( 'NONE', #67, .T. ) ;
#286 = TOROIDAL_SURFACE ( 'NONE', #288, 6.299999999999998934, 0.2000000000000000111 ) ;
#287 = ORGANIZATION ( 'NEURÈENÝ', 'NEURÈENÝ', '' ) ;
#288 = AXIS2_PLACEMENT_3D ( 'NONE', #251, #137, #91 ) ;
#289 = PERSON_AND_ORGANIZATION_ROLE ( 'creator' ) ;
#290 = APPROVAL_ROLE ( '' ) ;
#291 = EDGE_CURVE ( 'NONE', #88, #226, #261, .T. ) ;
#292 = APPROVAL_DATE_TIME ( #267, #185 ) ;
#293 = VERTEX_POINT ( 'NONE', #26 ) ;
#294 = EDGE_LOOP ( 'NONE', ( #41, #68, #184, #281 ) ) ;
#295 = CARTESIAN_POINT ( 'NONE',  ( -6.099999999999999645, 0.000000000000000000, 132.0000000000000000 ) ) ;
#296 = ORIENTED_EDGE ( 'NONE', *, *, #263, .F. ) ;
#297 = CARTESIAN_POINT ( 'NONE',  ( 0.000000000000000000, 0.000000000000000000, 7.000000000000000000 ) ) ;
#298 = CYLINDRICAL_SURFACE ( 'NONE', #207, 6.099999999999999645 ) ;
#299 = ORIENTED_EDGE ( 'NONE', *, *, #169, .F. ) ;
#300 = LINE ( 'NONE', #204, #218 ) ;
#301 = ORIENTED_EDGE ( 'NONE', *, *, #176, .F. ) ;
#302 = CC_DESIGN_PERSON_AND_ORGANIZATION_ASSIGNMENT ( #242, #32, ( #194 ) ) ;
#303 = DIRECTION ( 'NONE',  ( 1.000000000000000000, 0.000000000000000000, 0.000000000000000000 ) ) ;
#304 =( LENGTH_UNIT ( ) NAMED_UNIT ( * ) SI_UNIT ( .MILLI., .METRE. ) );
#305 = DIRECTION ( 'NONE',  ( 0.000000000000000000, 0.000000000000000000, 1.000000000000000000 ) ) ;
#306 = CIRCLE ( 'NONE', #190, 6.099999999999999645 ) ;
#307 = CYLINDRICAL_SURFACE ( 'NONE', #167, 9.000000000000000000 ) ;
ENDSEC;
END-ISO-10303-21;
