ISO-10303-21;
HEADER;
FILE_DESCRIPTION (( 'STEP AP203' ),
    '1' );
FILE_NAME ('3827.STEP',
    '2022-06-20T10:20:52',
    ( '' ),
    ( '' ),
    'SwSTEP 2.0',
    'SolidWorks 2019',
    '' );
FILE_SCHEMA (( 'CONFIG_CONTROL_DESIGN' ));
ENDSEC;

DATA;
#1 = ORIENTED_EDGE ( 'NONE', *, *, #45, .T. ) ;
#2 = CARTESIAN_POINT ( 'NONE',  ( -2.000000000000000000, 0.000000000000000000, 2.000000000000000000 ) ) ;
#3 = LOCAL_TIME ( 12, 20, 52.00000000000000000, #298 ) ;
#4 = CYLINDRICAL_SURFACE ( 'NONE', #274, 1.000000000000000000 ) ;
#5 = DIRECTION ( 'NONE',  ( 0.000000000000000000, 0.000000000000000000, -1.000000000000000000 ) ) ;
#6 = APPROVAL ( #136, 'NEURÈENÝ' ) ;
#7 = DIRECTION ( 'NONE',  ( 1.000000000000000000, 0.000000000000000000, 0.000000000000000000 ) ) ;
#8 = VECTOR ( 'NONE', #124, 1000.000000000000000 ) ;
#9 = DIRECTION ( 'NONE',  ( -0.000000000000000000, -0.000000000000000000, -1.000000000000000000 ) ) ;
#10 = CC_DESIGN_APPROVAL ( #6, ( #166 ) ) ;
#11 = CC_DESIGN_PERSON_AND_ORGANIZATION_ASSIGNMENT ( #204, #67, ( #175 ) ) ;
#12 = CARTESIAN_POINT ( 'NONE',  ( 1.000000000000000000, 1.224646799147353207E-16, 2.199999999999993516 ) ) ;
#13 = DIRECTION ( 'NONE',  ( -1.000000000000000000, 0.000000000000000000, 0.000000000000000000 ) ) ;
#14 = DIRECTION ( 'NONE',  ( 1.000000000000000000, 0.000000000000000000, 0.000000000000000000 ) ) ;
#15 = CC_DESIGN_APPROVAL ( #62, ( #19 ) ) ;
#16 = APPROVAL_DATE_TIME ( #114, #116 ) ;
#17 = EDGE_CURVE ( 'NONE', #187, #21, #152, .T. ) ;
#18 = ORIENTED_EDGE ( 'NONE', *, *, #236, .F. ) ;
#19 = PRODUCT_DEFINITION_FORMATION_WITH_SPECIFIED_SOURCE ( 'LIBOVOLNÝ', '', #101, .NOT_KNOWN. ) ;
#20 = MECHANICAL_CONTEXT ( 'NONE', #177, 'mechanical' ) ;
#21 = VERTEX_POINT ( 'NONE', #82 ) ;
#22 = EDGE_LOOP ( 'NONE', ( #142, #92, #169, #167 ) ) ;
#23 = ORIENTED_EDGE ( 'NONE', *, *, #61, .F. ) ;
#24 = AXIS2_PLACEMENT_3D ( 'NONE', #158, #242, #268 ) ;
#25 = ORIENTED_EDGE ( 'NONE', *, *, #197, .T. ) ;
#26 = LINE ( 'NONE', #2, #119 ) ;
#27 = CARTESIAN_POINT ( 'NONE',  ( 0.000000000000000000, 0.000000000000000000, 2.199999999999993516 ) ) ;
#28 = CARTESIAN_POINT ( 'NONE',  ( 0.000000000000000000, 0.000000000000000000, 2.000000000000000000 ) ) ;
#29 = EDGE_CURVE ( 'NONE', #248, #70, #221, .T. ) ;
#30 = LINE ( 'NONE', #153, #149 ) ;
#31 = DIRECTION ( 'NONE',  ( -0.000000000000000000, -0.000000000000000000, -1.000000000000000000 ) ) ;
#32 = ADVANCED_FACE ( 'NONE', ( #212 ), #106, .F. ) ;
#33 = AXIS2_PLACEMENT_3D ( 'NONE', #151, #233, #55 ) ;
#34 = DIRECTION ( 'NONE',  ( 0.000000000000000000, 0.000000000000000000, 1.000000000000000000 ) ) ;
#35 = EDGE_CURVE ( 'NONE', #205, #306, #105, .T. ) ;
#36 = CIRCLE ( 'NONE', #209, 1.000000000000000000 ) ;
#37 = CARTESIAN_POINT ( 'NONE',  ( 0.000000000000000000, 0.000000000000000000, 127.0000000000000000 ) ) ;
#38 = EDGE_CURVE ( 'NONE', #187, #214, #81, .T. ) ;
#39 = PERSON_AND_ORGANIZATION_ROLE ( 'creator' ) ;
#40 = ORIENTED_EDGE ( 'NONE', *, *, #173, .T. ) ;
#41 = APPROVAL_ROLE ( '' ) ;
#42 = ORIENTED_EDGE ( 'NONE', *, *, #283, .T. ) ;
#43 = LOCAL_TIME ( 12, 20, 52.00000000000000000, #229 ) ;
#44 = CARTESIAN_POINT ( 'NONE',  ( 0.000000000000000000, 0.000000000000000000, 0.000000000000000000 ) ) ;
#45 = EDGE_CURVE ( 'NONE', #255, #21, #54, .T. ) ;
#46 = SHAPE_DEFINITION_REPRESENTATION ( #211, #269 ) ;
#47 = VERTEX_POINT ( 'NONE', #123 ) ;
#48 = TOROIDAL_SURFACE ( 'NONE', #257, 1.200000000000000178, 0.2000000000000000111 ) ;
#49 = CARTESIAN_POINT ( 'NONE',  ( -1.000000000000000000, 0.000000000000000000, 2.199999999999993516 ) ) ;
#50 = EDGE_CURVE ( 'NONE', #118, #205, #36, .T. ) ;
#51 = DIRECTION ( 'NONE',  ( 0.000000000000000000, 0.000000000000000000, 1.000000000000000000 ) ) ;
#52 = CC_DESIGN_DATE_AND_TIME_ASSIGNMENT ( #89, #93, ( #175 ) ) ;
#53 = DIRECTION ( 'NONE',  ( 1.000000000000000000, 0.000000000000000000, 0.000000000000000000 ) ) ;
#54 = CIRCLE ( 'NONE', #245, 2.000000000000000000 ) ;
#55 = DIRECTION ( 'NONE',  ( 1.000000000000000000, 0.000000000000000000, -0.000000000000000000 ) ) ;
#56 = CARTESIAN_POINT ( 'NONE',  ( 0.000000000000000000, 0.000000000000000000, 0.000000000000000000 ) ) ;
#57 = DIRECTION ( 'NONE',  ( -1.000000000000000000, 0.000000000000000000, 0.000000000000000000 ) ) ;
#58 = AXIS2_PLACEMENT_3D ( 'NONE', #109, #34, #59 ) ;
#59 = DIRECTION ( 'NONE',  ( 1.000000000000000000, 0.000000000000000000, 0.000000000000000000 ) ) ;
#60 = APPLICATION_CONTEXT ( 'configuration controlled 3d designs of mechanical parts and assemblies' ) ;
#61 = EDGE_CURVE ( 'NONE', #47, #306, #121, .T. ) ;
#62 = APPROVAL ( #275, 'NEURÈENÝ' ) ;
#63 = CARTESIAN_POINT ( 'NONE',  ( 0.000000000000000000, 0.000000000000000000, 127.0000000000000000 ) ) ;
#64 = FACE_OUTER_BOUND ( 'NONE', #165, .T. ) ;
#65 = LOCAL_TIME ( 12, 20, 52.00000000000000000, #301 ) ;
#66 = AXIS2_PLACEMENT_3D ( 'NONE', #127, #193, #7 ) ;
#67 = PERSON_AND_ORGANIZATION_ROLE ( 'creator' ) ;
#68 = ORIENTED_EDGE ( 'NONE', *, *, #283, .F. ) ;
#69 = DATE_AND_TIME ( #276, #120 ) ;
#70 = VERTEX_POINT ( 'NONE', #282 ) ;
#71 = COORDINATED_UNIVERSAL_TIME_OFFSET ( 1, 0, .AHEAD. ) ;
#72 = ORIENTED_EDGE ( 'NONE', *, *, #61, .T. ) ;
#73 = CALENDAR_DATE ( 2022, 20, 6 ) ;
#74 = FACE_OUTER_BOUND ( 'NONE', #90, .T. ) ;
#75 = ADVANCED_FACE ( 'NONE', ( #100, #74 ), #237, .T. ) ;
#76 = CIRCLE ( 'NONE', #240, 1.200000000000000178 ) ;
#77 = DIRECTION ( 'NONE',  ( 0.000000000000000000, -1.000000000000000000, 0.000000000000000000 ) ) ;
#78 = DIRECTION ( 'NONE',  ( -0.000000000000000000, -0.000000000000000000, -1.000000000000000000 ) ) ;
#79 = ORIENTED_EDGE ( 'NONE', *, *, #129, .F. ) ;
#80 = ADVANCED_FACE ( 'NONE', ( #170 ), #4, .T. ) ;
#81 = CIRCLE ( 'NONE', #95, 2.000000000000000000 ) ;
#82 = CARTESIAN_POINT ( 'NONE',  ( 2.000000000000000000, 2.449293598294706414E-16, 0.000000000000000000 ) ) ;
#83 = DIRECTION ( 'NONE',  ( 1.000000000000000000, 0.000000000000000000, 0.000000000000000000 ) ) ;
#84 = DIRECTION ( 'NONE',  ( 0.000000000000000000, 0.000000000000000000, 1.000000000000000000 ) ) ;
#85 = APPLICATION_PROTOCOL_DEFINITION ( 'international standard', 'config_control_design', 1994, #177 ) ;
#86 = PERSON_AND_ORGANIZATION_ROLE ( 'design_supplier' ) ;
#87 = AXIS2_PLACEMENT_3D ( 'NONE', #155, #77, #5 ) ;
#88 = EDGE_CURVE ( 'NONE', #248, #118, #30, .T. ) ;
#89 = DATE_AND_TIME ( #202, #65 ) ;
#90 = EDGE_LOOP ( 'NONE', ( #184, #299 ) ) ;
#91 = APPROVAL_DATE_TIME ( #280, #6 ) ;
#92 = ORIENTED_EDGE ( 'NONE', *, *, #29, .F. ) ;
#93 = DATE_TIME_ROLE ( 'creation_date' ) ;
#94 = ORIENTED_EDGE ( 'NONE', *, *, #45, .F. ) ;
#95 = AXIS2_PLACEMENT_3D ( 'NONE', #104, #51, #235 ) ;
#96 = AXIS2_PLACEMENT_3D ( 'NONE', #37, #134, #13 ) ;
#97 = ORIENTED_EDGE ( 'NONE', *, *, #129, .T. ) ;
#98 = EDGE_LOOP ( 'NONE', ( #279, #281, #190, #163 ) ) ;
#99 = DIRECTION ( 'NONE',  ( -0.000000000000000000, -0.000000000000000000, -1.000000000000000000 ) ) ;
#100 = FACE_BOUND ( 'NONE', #117, .T. ) ;
#101 = PRODUCT ( '3827', '3827', '', ( #20 ) ) ;
#102 = DIRECTION ( 'NONE',  ( -0.000000000000000000, -0.000000000000000000, -1.000000000000000000 ) ) ;
#103 = MANIFOLD_SOLID_BREP ( 'Zaoblit1', #150 ) ;
#104 = CARTESIAN_POINT ( 'NONE',  ( 0.000000000000000000, 0.000000000000000000, 2.000000000000000000 ) ) ;
#105 = CIRCLE ( 'NONE', #87, 0.2000000000000000944 ) ;
#106 = PLANE ( 'NONE',  #171 ) ;
#107 = CIRCLE ( 'NONE', #160, 2.000000000000000000 ) ;
#108 = CYLINDRICAL_SURFACE ( 'NONE', #305, 2.000000000000000000 ) ;
#109 = CARTESIAN_POINT ( 'NONE',  ( 0.000000000000000000, 0.000000000000000000, 2.000000000000000000 ) ) ;
#110 = DIRECTION ( 'NONE',  ( -0.000000000000000000, -0.000000000000000000, -1.000000000000000000 ) ) ;
#111 = PERSON_AND_ORGANIZATION ( #272, #278 ) ;
#112 = PERSON_AND_ORGANIZATION ( #272, #278 ) ;
#113 = CIRCLE ( 'NONE', #58, 2.000000000000000000 ) ;
#114 = DATE_AND_TIME ( #304, #3 ) ;
#115 = DATE_AND_TIME ( #254, #264 ) ;
#116 = APPROVAL ( #162, 'NEURÈENÝ' ) ;
#117 = EDGE_LOOP ( 'NONE', ( #25, #72 ) ) ;
#118 = VERTEX_POINT ( 'NONE', #49 ) ;
#119 = VECTOR ( 'NONE', #99, 1000.000000000000000 ) ;
#120 = LOCAL_TIME ( 12, 20, 52.00000000000000000, #182 ) ;
#121 = CIRCLE ( 'NONE', #288, 1.200000000000000178 ) ;
#122 = EDGE_LOOP ( 'NONE', ( #207, #228 ) ) ;
#123 = CARTESIAN_POINT ( 'NONE',  ( -1.200000000000000178, 1.469576158976823799E-16, 1.999999999999996669 ) ) ;
#124 = DIRECTION ( 'NONE',  ( -0.000000000000000000, -0.000000000000000000, -1.000000000000000000 ) ) ;
#125 = DIRECTION ( 'NONE',  ( 1.000000000000000000, 0.000000000000000000, -0.000000000000000000 ) ) ;
#126 = DIRECTION ( 'NONE',  ( 0.000000000000000000, 0.000000000000000000, 1.000000000000000000 ) ) ;
#127 = CARTESIAN_POINT ( 'NONE',  ( 0.000000000000000000, 0.000000000000000000, 127.0000000000000000 ) ) ;
#128 = APPROVAL_PERSON_ORGANIZATION ( #183, #62, #138 ) ;
#129 = EDGE_CURVE ( 'NONE', #118, #47, #244, .T. ) ;
#130 = FACE_OUTER_BOUND ( 'NONE', #98, .T. ) ;
#131 = DIRECTION ( 'NONE',  ( 0.000000000000000000, 0.000000000000000000, 1.000000000000000000 ) ) ;
#132 = CARTESIAN_POINT ( 'NONE',  ( 2.000000000000000000, 2.449293598294706414E-16, 2.000000000000000000 ) ) ;
#133 = AXIS2_PLACEMENT_3D ( 'NONE', #198, #297, #83 ) ;
#134 = DIRECTION ( 'NONE',  ( -0.000000000000000000, -0.000000000000000000, -1.000000000000000000 ) ) ;
#135 = ADVANCED_FACE ( 'NONE', ( #154 ), #172, .T. ) ;
#136 = APPROVAL_STATUS ( 'not_yet_approved' ) ;
#137 = ORIENTED_EDGE ( 'NONE', *, *, #251, .F. ) ;
#138 = APPROVAL_ROLE ( '' ) ;
#139 = ORIENTED_EDGE ( 'NONE', *, *, #17, .F. ) ;
#140 = EDGE_CURVE ( 'NONE', #214, #255, #26, .T. ) ;
#141 = DIRECTION ( 'NONE',  ( 1.000000000000000000, 0.000000000000000000, 0.000000000000000000 ) ) ;
#142 = ORIENTED_EDGE ( 'NONE', *, *, #173, .F. ) ;
#143 = DESIGN_CONTEXT ( 'detailed design', #60, 'design' ) ;
#144 = SECURITY_CLASSIFICATION_LEVEL ( 'unclassified' ) ;
#145 = EDGE_LOOP ( 'NONE', ( #94, #203 ) ) ;
#146 = PERSON_AND_ORGANIZATION ( #272, #278 ) ;
#147 = ORIENTED_EDGE ( 'NONE', *, *, #50, .F. ) ;
#148 = PRODUCT_RELATED_PRODUCT_CATEGORY ( 'detail', '', ( #101 ) ) ;
#149 = VECTOR ( 'NONE', #78, 1000.000000000000000 ) ;
#150 = CLOSED_SHELL ( 'NONE', ( #296, #260, #307, #292, #75, #32, #80, #135, #196 ) ) ;
#151 = CARTESIAN_POINT ( 'NONE',  ( 0.000000000000000000, 0.000000000000000000, 127.0000000000000000 ) ) ;
#152 = LINE ( 'NONE', #266, #201 ) ;
#153 = CARTESIAN_POINT ( 'NONE',  ( -1.000000000000000000, 0.000000000000000000, 127.0000000000000000 ) ) ;
#154 = FACE_OUTER_BOUND ( 'NONE', #122, .T. ) ;
#155 = CARTESIAN_POINT ( 'NONE',  ( 1.200000000000000178, 0.000000000000000000, 2.199999999999993516 ) ) ;
#156 = DIRECTION ( 'NONE',  ( 0.000000000000000000, 0.000000000000000000, 1.000000000000000000 ) ) ;
#157 = CC_DESIGN_PERSON_AND_ORGANIZATION_ASSIGNMENT ( #111, #86, ( #19 ) ) ;
#158 = CARTESIAN_POINT ( 'NONE',  ( 0.000000000000000000, 0.000000000000000000, 2.000000000000000000 ) ) ;
#159 = DIRECTION ( 'NONE',  ( 1.000000000000000000, 0.000000000000000000, 0.000000000000000000 ) ) ;
#160 = AXIS2_PLACEMENT_3D ( 'NONE', #174, #262, #53 ) ;
#161 = CARTESIAN_POINT ( 'NONE',  ( -2.000000000000000000, 0.000000000000000000, 2.000000000000000000 ) ) ;
#162 = APPROVAL_STATUS ( 'not_yet_approved' ) ;
#163 = ORIENTED_EDGE ( 'NONE', *, *, #140, .F. ) ;
#164 = PERSON_AND_ORGANIZATION ( #272, #278 ) ;
#165 = EDGE_LOOP ( 'NONE', ( #137, #40, #42, #227 ) ) ;
#166 = SECURITY_CLASSIFICATION ( '', '', #144 ) ;
#167 = ORIENTED_EDGE ( 'NONE', *, *, #50, .T. ) ;
#168 = PERSON_AND_ORGANIZATION_ROLE ( 'design_owner' ) ;
#169 = ORIENTED_EDGE ( 'NONE', *, *, #88, .T. ) ;
#170 = FACE_OUTER_BOUND ( 'NONE', #22, .T. ) ;
#171 = AXIS2_PLACEMENT_3D ( 'NONE', #56, #126, #285 ) ;
#172 = PLANE ( 'NONE',  #33 ) ;
#173 = EDGE_CURVE ( 'NONE', #70, #205, #261, .T. ) ;
#174 = CARTESIAN_POINT ( 'NONE',  ( 0.000000000000000000, 0.000000000000000000, 0.000000000000000000 ) ) ;
#175 = PRODUCT_DEFINITION ( 'NEZNÁMÝ', '', #19, #143 ) ;
#176 = DIRECTION ( 'NONE',  ( -1.000000000000000000, 1.224646799147351975E-16, 0.000000000000000000 ) ) ;
#177 = APPLICATION_CONTEXT ( 'configuration controlled 3d designs of mechanical parts and assemblies' ) ;
#178 = CARTESIAN_POINT ( 'NONE',  ( 1.200000000000000178, 0.000000000000000000, 1.999999999999996669 ) ) ;
#179 = EDGE_CURVE ( 'NONE', #21, #255, #107, .T. ) ;
#180 = DIRECTION ( 'NONE',  ( 1.000000000000000000, 0.000000000000000000, 0.000000000000000000 ) ) ;
#181 =( NAMED_UNIT ( * ) PLANE_ANGLE_UNIT ( ) SI_UNIT ( $, .RADIAN. ) );
#182 = COORDINATED_UNIVERSAL_TIME_OFFSET ( 1, 0, .AHEAD. ) ;
#183 = PERSON_AND_ORGANIZATION ( #272, #278 ) ;
#184 = ORIENTED_EDGE ( 'NONE', *, *, #236, .T. ) ;
#185 = AXIS2_PLACEMENT_3D ( 'NONE', #63, #131, #159 ) ;
#186 = CC_DESIGN_SECURITY_CLASSIFICATION ( #166, ( #19 ) ) ;
#187 = VERTEX_POINT ( 'NONE', #132 ) ;
#188 = CC_DESIGN_PERSON_AND_ORGANIZATION_ASSIGNMENT ( #164, #256, ( #166 ) ) ;
#189 = ORIENTED_EDGE ( 'NONE', *, *, #35, .T. ) ;
#190 = ORIENTED_EDGE ( 'NONE', *, *, #179, .T. ) ;
#191 = DIRECTION ( 'NONE',  ( 0.000000000000000000, 0.000000000000000000, 1.000000000000000000 ) ) ;
#192 = DIRECTION ( 'NONE',  ( 1.000000000000000000, 0.000000000000000000, 0.000000000000000000 ) ) ;
#193 = DIRECTION ( 'NONE',  ( 0.000000000000000000, 0.000000000000000000, 1.000000000000000000 ) ) ;
#194 = DIRECTION ( 'NONE',  ( 0.000000000000000000, 0.000000000000000000, 1.000000000000000000 ) ) ;
#195 = CARTESIAN_POINT ( 'NONE',  ( -2.000000000000000000, 0.000000000000000000, 0.000000000000000000 ) ) ;
#196 = ADVANCED_FACE ( 'NONE', ( #246 ), #48, .F. ) ;
#197 = EDGE_CURVE ( 'NONE', #306, #47, #76, .T. ) ;
#198 = CARTESIAN_POINT ( 'NONE',  ( 0.000000000000000000, 0.000000000000000000, 2.199999999999993516 ) ) ;
#199 =( NAMED_UNIT ( * ) SI_UNIT ( $, .STERADIAN. ) SOLID_ANGLE_UNIT ( ) );
#200 = PERSON_AND_ORGANIZATION ( #272, #278 ) ;
#201 = VECTOR ( 'NONE', #9, 1000.000000000000000 ) ;
#202 = CALENDAR_DATE ( 2022, 20, 6 ) ;
#203 = ORIENTED_EDGE ( 'NONE', *, *, #179, .F. ) ;
#204 = PERSON_AND_ORGANIZATION ( #272, #278 ) ;
#205 = VERTEX_POINT ( 'NONE', #12 ) ;
#206 = APPLICATION_PROTOCOL_DEFINITION ( 'international standard', 'config_control_design', 1994, #60 ) ;
#207 = ORIENTED_EDGE ( 'NONE', *, *, #29, .T. ) ;
#208 = APPROVAL_DATE_TIME ( #69, #62 ) ;
#209 = AXIS2_PLACEMENT_3D ( 'NONE', #27, #194, #263 ) ;
#210 = DIRECTION ( 'NONE',  ( 1.224646799147353207E-16, 1.000000000000000000, -0.000000000000000000 ) ) ;
#211 = PRODUCT_DEFINITION_SHAPE ( 'NONE', 'NONE',  #175 ) ;
#212 = FACE_OUTER_BOUND ( 'NONE', #145, .T. ) ;
#213 = CARTESIAN_POINT ( 'NONE',  ( -1.200000000000000178, 1.469576158976823799E-16, 2.199999999999993516 ) ) ;
#214 = VERTEX_POINT ( 'NONE', #161 ) ;
#215 = CC_DESIGN_DATE_AND_TIME_ASSIGNMENT ( #115, #249, ( #166 ) ) ;
#216 = DIRECTION ( 'NONE',  ( 1.000000000000000000, 0.000000000000000000, 0.000000000000000000 ) ) ;
#217 = AXIS2_PLACEMENT_3D ( 'NONE', #213, #210, #176 ) ;
#218 = CC_DESIGN_APPROVAL ( #116, ( #175 ) ) ;
#219 = CYLINDRICAL_SURFACE ( 'NONE', #24, 2.000000000000000000 ) ;
#220 =( LENGTH_UNIT ( ) NAMED_UNIT ( * ) SI_UNIT ( .MILLI., .METRE. ) );
#221 = CIRCLE ( 'NONE', #66, 1.000000000000000000 ) ;
#222 = CIRCLE ( 'NONE', #265, 1.000000000000000000 ) ;
#223 = CARTESIAN_POINT ( 'NONE',  ( 0.000000000000000000, 0.000000000000000000, 2.199999999999993516 ) ) ;
#224 = EDGE_LOOP ( 'NONE', ( #147, #97, #277, #302 ) ) ;
#225 = PERSON_AND_ORGANIZATION ( #272, #278 ) ;
#226 = EDGE_LOOP ( 'NONE', ( #79, #68, #189, #23 ) ) ;
#227 = ORIENTED_EDGE ( 'NONE', *, *, #88, .F. ) ;
#228 = ORIENTED_EDGE ( 'NONE', *, *, #251, .T. ) ;
#229 = COORDINATED_UNIVERSAL_TIME_OFFSET ( 1, 0, .AHEAD. ) ;
#230 = AXIS2_PLACEMENT_3D ( 'NONE', #28, #191, #125 ) ;
#231 = APPROVAL_PERSON_ORGANIZATION ( #225, #6, #300 ) ;
#232 = ORIENTED_EDGE ( 'NONE', *, *, #140, .T. ) ;
#233 = DIRECTION ( 'NONE',  ( 0.000000000000000000, 0.000000000000000000, 1.000000000000000000 ) ) ;
#234 = CARTESIAN_POINT ( 'NONE',  ( 1.000000000000000000, 1.224646799147353207E-16, 127.0000000000000000 ) ) ;
#235 = DIRECTION ( 'NONE',  ( 1.000000000000000000, 0.000000000000000000, 0.000000000000000000 ) ) ;
#236 = EDGE_CURVE ( 'NONE', #214, #187, #113, .T. ) ;
#237 = PLANE ( 'NONE',  #230 ) ;
#238 = CARTESIAN_POINT ( 'NONE',  ( 0.000000000000000000, 0.000000000000000000, 2.000000000000000000 ) ) ;
#239 = FACE_OUTER_BOUND ( 'NONE', #250, .T. ) ;
#240 = AXIS2_PLACEMENT_3D ( 'NONE', #273, #267, #180 ) ;
#241 =( GEOMETRIC_REPRESENTATION_CONTEXT ( 3 ) GLOBAL_UNCERTAINTY_ASSIGNED_CONTEXT ( ( #253 ) ) GLOBAL_UNIT_ASSIGNED_CONTEXT ( ( #220, #181, #199 ) ) REPRESENTATION_CONTEXT ( 'NONE', 'WORKASPACE' ) );
#242 = DIRECTION ( 'NONE',  ( -0.000000000000000000, -0.000000000000000000, -1.000000000000000000 ) ) ;
#243 = CARTESIAN_POINT ( 'NONE',  ( 0.000000000000000000, 0.000000000000000000, 2.000000000000000000 ) ) ;
#244 = CIRCLE ( 'NONE', #217, 0.2000000000000000944 ) ;
#245 = AXIS2_PLACEMENT_3D ( 'NONE', #287, #289, #192 ) ;
#246 = FACE_OUTER_BOUND ( 'NONE', #226, .T. ) ;
#247 = DIRECTION ( 'NONE',  ( 0.000000000000000000, 0.000000000000000000, 1.000000000000000000 ) ) ;
#248 = VERTEX_POINT ( 'NONE', #293 ) ;
#249 = DATE_TIME_ROLE ( 'classification_date' ) ;
#250 = EDGE_LOOP ( 'NONE', ( #139, #18, #232, #1 ) ) ;
#251 = EDGE_CURVE ( 'NONE', #70, #248, #284, .T. ) ;
#252 = CC_DESIGN_PERSON_AND_ORGANIZATION_ASSIGNMENT ( #200, #168, ( #101 ) ) ;
#253 = UNCERTAINTY_MEASURE_WITH_UNIT (LENGTH_MEASURE( 1.000000000000000082E-05 ), #220, 'distance_accuracy_value', 'NONE');
#254 = CALENDAR_DATE ( 2022, 20, 6 ) ;
#255 = VERTEX_POINT ( 'NONE', #195 ) ;
#256 = PERSON_AND_ORGANIZATION_ROLE ( 'classification_officer' ) ;
#257 = AXIS2_PLACEMENT_3D ( 'NONE', #270, #156, #295 ) ;
#258 = AXIS2_PLACEMENT_3D ( 'NONE', #44, #247, #141 ) ;
#259 = DIRECTION ( 'NONE',  ( -1.000000000000000000, 0.000000000000000000, 0.000000000000000000 ) ) ;
#260 = ADVANCED_FACE ( 'NONE', ( #64 ), #291, .T. ) ;
#261 = LINE ( 'NONE', #234, #8 ) ;
#262 = DIRECTION ( 'NONE',  ( 0.000000000000000000, 0.000000000000000000, 1.000000000000000000 ) ) ;
#263 = DIRECTION ( 'NONE',  ( 1.000000000000000000, 0.000000000000000000, 0.000000000000000000 ) ) ;
#264 = LOCAL_TIME ( 12, 20, 52.00000000000000000, #71 ) ;
#265 = AXIS2_PLACEMENT_3D ( 'NONE', #223, #84, #14 ) ;
#266 = CARTESIAN_POINT ( 'NONE',  ( 2.000000000000000000, 2.449293598294706414E-16, 2.000000000000000000 ) ) ;
#267 = DIRECTION ( 'NONE',  ( -0.000000000000000000, -0.000000000000000000, -1.000000000000000000 ) ) ;
#268 = DIRECTION ( 'NONE',  ( -1.000000000000000000, 0.000000000000000000, 0.000000000000000000 ) ) ;
#269 = ADVANCED_BREP_SHAPE_REPRESENTATION ( '3827', ( #103, #258 ), #241 ) ;
#270 = CARTESIAN_POINT ( 'NONE',  ( 0.000000000000000000, 0.000000000000000000, 2.199999999999993516 ) ) ;
#271 = CC_DESIGN_PERSON_AND_ORGANIZATION_ASSIGNMENT ( #146, #39, ( #19 ) ) ;
#272 = PERSON ( 'NEURÈENÝ', 'NEURÈENÝ', 'NEURÈENÝ', ('NEURÈENÝ'), ('NEURÈENÝ'), ('NEURÈENÝ') ) ;
#273 = CARTESIAN_POINT ( 'NONE',  ( 0.000000000000000000, 0.000000000000000000, 2.000000000000000000 ) ) ;
#274 = AXIS2_PLACEMENT_3D ( 'NONE', #286, #102, #259 ) ;
#275 = APPROVAL_STATUS ( 'not_yet_approved' ) ;
#276 = CALENDAR_DATE ( 2022, 20, 6 ) ;
#277 = ORIENTED_EDGE ( 'NONE', *, *, #197, .F. ) ;
#278 = ORGANIZATION ( 'NEURÈENÝ', 'NEURÈENÝ', '' ) ;
#279 = ORIENTED_EDGE ( 'NONE', *, *, #38, .F. ) ;
#280 = DATE_AND_TIME ( #73, #43 ) ;
#281 = ORIENTED_EDGE ( 'NONE', *, *, #17, .T. ) ;
#282 = CARTESIAN_POINT ( 'NONE',  ( 1.000000000000000000, 1.224646799147353207E-16, 127.0000000000000000 ) ) ;
#283 = EDGE_CURVE ( 'NONE', #205, #118, #222, .T. ) ;
#284 = CIRCLE ( 'NONE', #185, 1.000000000000000000 ) ;
#285 = DIRECTION ( 'NONE',  ( 1.000000000000000000, 0.000000000000000000, -0.000000000000000000 ) ) ;
#286 = CARTESIAN_POINT ( 'NONE',  ( 0.000000000000000000, 0.000000000000000000, 127.0000000000000000 ) ) ;
#287 = CARTESIAN_POINT ( 'NONE',  ( 0.000000000000000000, 0.000000000000000000, 0.000000000000000000 ) ) ;
#288 = AXIS2_PLACEMENT_3D ( 'NONE', #238, #31, #216 ) ;
#289 = DIRECTION ( 'NONE',  ( 0.000000000000000000, 0.000000000000000000, 1.000000000000000000 ) ) ;
#290 = TOROIDAL_SURFACE ( 'NONE', #133, 1.200000000000000178, 0.2000000000000000111 ) ;
#291 = CYLINDRICAL_SURFACE ( 'NONE', #96, 1.000000000000000000 ) ;
#292 = ADVANCED_FACE ( 'NONE', ( #239 ), #108, .T. ) ;
#293 = CARTESIAN_POINT ( 'NONE',  ( -1.000000000000000000, 0.000000000000000000, 127.0000000000000000 ) ) ;
#294 = FACE_OUTER_BOUND ( 'NONE', #224, .T. ) ;
#295 = DIRECTION ( 'NONE',  ( 1.000000000000000000, 0.000000000000000000, 0.000000000000000000 ) ) ;
#296 = ADVANCED_FACE ( 'NONE', ( #294 ), #290, .F. ) ;
#297 = DIRECTION ( 'NONE',  ( 0.000000000000000000, 0.000000000000000000, 1.000000000000000000 ) ) ;
#298 = COORDINATED_UNIVERSAL_TIME_OFFSET ( 1, 0, .AHEAD. ) ;
#299 = ORIENTED_EDGE ( 'NONE', *, *, #38, .T. ) ;
#300 = APPROVAL_ROLE ( '' ) ;
#301 = COORDINATED_UNIVERSAL_TIME_OFFSET ( 1, 0, .AHEAD. ) ;
#302 = ORIENTED_EDGE ( 'NONE', *, *, #35, .F. ) ;
#303 = APPROVAL_PERSON_ORGANIZATION ( #112, #116, #41 ) ;
#304 = CALENDAR_DATE ( 2022, 20, 6 ) ;
#305 = AXIS2_PLACEMENT_3D ( 'NONE', #243, #110, #57 ) ;
#306 = VERTEX_POINT ( 'NONE', #178 ) ;
#307 = ADVANCED_FACE ( 'NONE', ( #130 ), #219, .T. ) ;
ENDSEC;
END-ISO-10303-21;
