ISO-10303-21;
HEADER;
FILE_DESCRIPTION (( 'STEP AP203' ),
    '1' );
FILE_NAME ('21cd.STEP',
    '2022-06-20T10:08:25',
    ( '' ),
    ( '' ),
    'SwSTEP 2.0',
    'SolidWorks 2019',
    '' );
FILE_SCHEMA (( 'CONFIG_CONTROL_DESIGN' ));
ENDSEC;

DATA;
#1 = PERSON_AND_ORGANIZATION ( #244, #290 ) ;
#2 = ORIENTED_EDGE ( 'NONE', *, *, #99, .F. ) ;
#3 = CIRCLE ( 'NONE', #222, 4.000000000000000000 ) ;
#4 = CIRCLE ( 'NONE', #76, 2.300000000000000266 ) ;
#5 = ORIENTED_EDGE ( 'NONE', *, *, #240, .T. ) ;
#6 = CARTESIAN_POINT ( 'NONE',  ( 0.000000000000000000, 0.000000000000000000, 3.000000000000000000 ) ) ;
#7 = ORIENTED_EDGE ( 'NONE', *, *, #61, .T. ) ;
#8 = FACE_OUTER_BOUND ( 'NONE', #246, .T. ) ;
#9 = DIRECTION ( 'NONE',  ( -0.000000000000000000, -0.000000000000000000, -1.000000000000000000 ) ) ;
#10 = AXIS2_PLACEMENT_3D ( 'NONE', #17, #69, #166 ) ;
#11 =( LENGTH_UNIT ( ) NAMED_UNIT ( * ) SI_UNIT ( .MILLI., .METRE. ) );
#12 = DIRECTION ( 'NONE',  ( 0.000000000000000000, -1.000000000000000000, 0.000000000000000000 ) ) ;
#13 = DIRECTION ( 'NONE',  ( 0.000000000000000000, 0.000000000000000000, 1.000000000000000000 ) ) ;
#14 = DIRECTION ( 'NONE',  ( -0.000000000000000000, -0.000000000000000000, -1.000000000000000000 ) ) ;
#15 = ADVANCED_FACE ( 'NONE', ( #231 ), #162, .T. ) ;
#16 = CARTESIAN_POINT ( 'NONE',  ( 0.000000000000000000, 0.000000000000000000, 0.000000000000000000 ) ) ;
#17 = CARTESIAN_POINT ( 'NONE',  ( 0.000000000000000000, 0.000000000000000000, 128.0000000000000000 ) ) ;
#18 = CARTESIAN_POINT ( 'NONE',  ( 0.000000000000000000, 0.000000000000000000, 3.000000000000000000 ) ) ;
#19 = DIRECTION ( 'NONE',  ( 1.000000000000000000, 0.000000000000000000, -0.000000000000000000 ) ) ;
#20 = CARTESIAN_POINT ( 'NONE',  ( 2.100000000000000089, 2.571758278209441957E-16, 128.0000000000000000 ) ) ;
#21 = EDGE_CURVE ( 'NONE', #201, #133, #104, .T. ) ;
#22 = PERSON_AND_ORGANIZATION_ROLE ( 'design_supplier' ) ;
#23 = AXIS2_PLACEMENT_3D ( 'NONE', #86, #250, #90 ) ;
#24 = DATE_AND_TIME ( #52, #268 ) ;
#25 = ADVANCED_FACE ( 'NONE', ( #155 ), #146, .F. ) ;
#26 = MECHANICAL_CONTEXT ( 'NONE', #83, 'mechanical' ) ;
#27 = ORIENTED_EDGE ( 'NONE', *, *, #135, .T. ) ;
#28 = VERTEX_POINT ( 'NONE', #279 ) ;
#29 = PRODUCT_DEFINITION_SHAPE ( 'NONE', 'NONE',  #230 ) ;
#30 = AXIS2_PLACEMENT_3D ( 'NONE', #277, #156, #211 ) ;
#31 = ORIENTED_EDGE ( 'NONE', *, *, #61, .F. ) ;
#32 = DIRECTION ( 'NONE',  ( 0.000000000000000000, 0.000000000000000000, 1.000000000000000000 ) ) ;
#33 = EDGE_CURVE ( 'NONE', #298, #181, #206, .T. ) ;
#34 = CARTESIAN_POINT ( 'NONE',  ( -2.300000000000000266, 2.816687638038912549E-16, 2.999999999999997335 ) ) ;
#35 = DIRECTION ( 'NONE',  ( 1.000000000000000000, 0.000000000000000000, 0.000000000000000000 ) ) ;
#36 = DIRECTION ( 'NONE',  ( -0.000000000000000000, -0.000000000000000000, -1.000000000000000000 ) ) ;
#37 = ORIENTED_EDGE ( 'NONE', *, *, #289, .T. ) ;
#38 = AXIS2_PLACEMENT_3D ( 'NONE', #94, #284, #264 ) ;
#39 = DIRECTION ( 'NONE',  ( 0.000000000000000000, 0.000000000000000000, 1.000000000000000000 ) ) ;
#40 = EDGE_CURVE ( 'NONE', #270, #271, #3, .T. ) ;
#41 = DIRECTION ( 'NONE',  ( 0.000000000000000000, 0.000000000000000000, -1.000000000000000000 ) ) ;
#42 = CARTESIAN_POINT ( 'NONE',  ( -4.000000000000000000, 0.000000000000000000, 3.000000000000000000 ) ) ;
#43 = FACE_OUTER_BOUND ( 'NONE', #113, .T. ) ;
#44 = CARTESIAN_POINT ( 'NONE',  ( 4.000000000000000000, 4.898587196589412829E-16, 3.000000000000000000 ) ) ;
#45 = CARTESIAN_POINT ( 'NONE',  ( 0.000000000000000000, 0.000000000000000000, 3.000000000000000000 ) ) ;
#46 = APPROVAL_PERSON_ORGANIZATION ( #122, #252, #221 ) ;
#47 = LINE ( 'NONE', #20, #140 ) ;
#48 = DIRECTION ( 'NONE',  ( 0.000000000000000000, 0.000000000000000000, 1.000000000000000000 ) ) ;
#49 = CC_DESIGN_PERSON_AND_ORGANIZATION_ASSIGNMENT ( #100, #102, ( #189 ) ) ;
#50 = PERSON_AND_ORGANIZATION_ROLE ( 'classification_officer' ) ;
#51 = CC_DESIGN_SECURITY_CLASSIFICATION ( #217, ( #189 ) ) ;
#52 = CALENDAR_DATE ( 2022, 20, 6 ) ;
#53 = VECTOR ( 'NONE', #260, 1000.000000000000000 ) ;
#54 = AXIS2_PLACEMENT_3D ( 'NONE', #45, #238, #168 ) ;
#55 = APPLICATION_CONTEXT ( 'configuration controlled 3d designs of mechanical parts and assemblies' ) ;
#56 = ORIENTED_EDGE ( 'NONE', *, *, #240, .F. ) ;
#57 = DIRECTION ( 'NONE',  ( 0.000000000000000000, 0.000000000000000000, 1.000000000000000000 ) ) ;
#58 = CARTESIAN_POINT ( 'NONE',  ( 0.000000000000000000, 0.000000000000000000, 3.199999999999994404 ) ) ;
#59 = CLOSED_SHELL ( 'NONE', ( #291, #269, #15, #93, #248, #194, #237, #152, #25 ) ) ;
#60 = EDGE_LOOP ( 'NONE', ( #288, #185 ) ) ;
#61 = EDGE_CURVE ( 'NONE', #153, #292, #87, .T. ) ;
#62 = ORIENTED_EDGE ( 'NONE', *, *, #40, .F. ) ;
#63 = AXIS2_PLACEMENT_3D ( 'NONE', #165, #132, #227 ) ;
#64 = FACE_OUTER_BOUND ( 'NONE', #274, .T. ) ;
#65 = CARTESIAN_POINT ( 'NONE',  ( 0.000000000000000000, 0.000000000000000000, 3.199999999999994404 ) ) ;
#66 = CARTESIAN_POINT ( 'NONE',  ( 0.000000000000000000, 0.000000000000000000, 128.0000000000000000 ) ) ;
#67 = FACE_OUTER_BOUND ( 'NONE', #60, .T. ) ;
#68 = DATE_TIME_ROLE ( 'classification_date' ) ;
#69 = DIRECTION ( 'NONE',  ( 0.000000000000000000, 0.000000000000000000, 1.000000000000000000 ) ) ;
#70 = APPROVAL ( #172, 'NEURÈENÝ' ) ;
#71 = DATE_AND_TIME ( #75, #105 ) ;
#72 = SHAPE_DEFINITION_REPRESENTATION ( #29, #198 ) ;
#73 = PERSON_AND_ORGANIZATION_ROLE ( 'creator' ) ;
#74 = PRODUCT_RELATED_PRODUCT_CATEGORY ( 'detail', '', ( #259 ) ) ;
#75 = CALENDAR_DATE ( 2022, 20, 6 ) ;
#76 = AXIS2_PLACEMENT_3D ( 'NONE', #18, #92, #112 ) ;
#77 = EDGE_LOOP ( 'NONE', ( #180, #177 ) ) ;
#78 = EDGE_CURVE ( 'NONE', #272, #133, #170, .T. ) ;
#79 = CIRCLE ( 'NONE', #63, 4.000000000000000000 ) ;
#80 = DIRECTION ( 'NONE',  ( -1.000000000000000000, 0.000000000000000000, 0.000000000000000000 ) ) ;
#81 = ORIENTED_EDGE ( 'NONE', *, *, #200, .F. ) ;
#82 = DIRECTION ( 'NONE',  ( 0.000000000000000000, 0.000000000000000000, 1.000000000000000000 ) ) ;
#83 = APPLICATION_CONTEXT ( 'configuration controlled 3d designs of mechanical parts and assemblies' ) ;
#84 = DIRECTION ( 'NONE',  ( -0.000000000000000000, -0.000000000000000000, -1.000000000000000000 ) ) ;
#85 = CC_DESIGN_PERSON_AND_ORGANIZATION_ASSIGNMENT ( #193, #96, ( #259 ) ) ;
#86 = CARTESIAN_POINT ( 'NONE',  ( 0.000000000000000000, 0.000000000000000000, 3.000000000000000000 ) ) ;
#87 = CIRCLE ( 'NONE', #265, 4.000000000000000000 ) ;
#88 = ORIENTED_EDGE ( 'NONE', *, *, #219, .F. ) ;
#89 = DIRECTION ( 'NONE',  ( 1.000000000000000000, 0.000000000000000000, 0.000000000000000000 ) ) ;
#90 = DIRECTION ( 'NONE',  ( 1.000000000000000000, 0.000000000000000000, -0.000000000000000000 ) ) ;
#91 = LINE ( 'NONE', #210, #127 ) ;
#92 = DIRECTION ( 'NONE',  ( -0.000000000000000000, -0.000000000000000000, -1.000000000000000000 ) ) ;
#93 = ADVANCED_FACE ( 'NONE', ( #43 ), #235, .T. ) ;
#94 = CARTESIAN_POINT ( 'NONE',  ( 0.000000000000000000, 0.000000000000000000, 128.0000000000000000 ) ) ;
#95 = UNCERTAINTY_MEASURE_WITH_UNIT (LENGTH_MEASURE( 1.000000000000000082E-05 ), #11, 'distance_accuracy_value', 'NONE');
#96 = PERSON_AND_ORGANIZATION_ROLE ( 'design_owner' ) ;
#97 = LOCAL_TIME ( 12, 8, 25.00000000000000000, #145 ) ;
#98 = CALENDAR_DATE ( 2022, 20, 6 ) ;
#99 = EDGE_CURVE ( 'NONE', #181, #201, #114, .T. ) ;
#100 = PERSON_AND_ORGANIZATION ( #244, #290 ) ;
#101 = AXIS2_PLACEMENT_3D ( 'NONE', #188, #116, #187 ) ;
#102 = PERSON_AND_ORGANIZATION_ROLE ( 'creator' ) ;
#103 = APPROVAL_STATUS ( 'not_yet_approved' ) ;
#104 = CIRCLE ( 'NONE', #273, 0.2000000000000000944 ) ;
#105 = LOCAL_TIME ( 12, 8, 25.00000000000000000, #213 ) ;
#106 = CC_DESIGN_APPROVAL ( #252, ( #230 ) ) ;
#107 = CC_DESIGN_DATE_AND_TIME_ASSIGNMENT ( #119, #239, ( #230 ) ) ;
#108 = ORIENTED_EDGE ( 'NONE', *, *, #126, .F. ) ;
#109 = ORIENTED_EDGE ( 'NONE', *, *, #78, .T. ) ;
#110 = FACE_BOUND ( 'NONE', #247, .T. ) ;
#111 = ORIENTED_EDGE ( 'NONE', *, *, #21, .F. ) ;
#112 = DIRECTION ( 'NONE',  ( 1.000000000000000000, 0.000000000000000000, 0.000000000000000000 ) ) ;
#113 = EDGE_LOOP ( 'NONE', ( #299, #62, #233, #276 ) ) ;
#114 = CIRCLE ( 'NONE', #101, 2.100000000000000089 ) ;
#115 = ORIENTED_EDGE ( 'NONE', *, *, #200, .T. ) ;
#116 = DIRECTION ( 'NONE',  ( 0.000000000000000000, 0.000000000000000000, 1.000000000000000000 ) ) ;
#117 = AXIS2_PLACEMENT_3D ( 'NONE', #163, #82, #205 ) ;
#118 = CARTESIAN_POINT ( 'NONE',  ( 4.000000000000000000, 4.898587196589412829E-16, 0.000000000000000000 ) ) ;
#119 = DATE_AND_TIME ( #98, #97 ) ;
#120 = FACE_OUTER_BOUND ( 'NONE', #130, .T. ) ;
#121 = DESIGN_CONTEXT ( 'detailed design', #55, 'design' ) ;
#122 = PERSON_AND_ORGANIZATION ( #244, #290 ) ;
#123 = APPROVAL_DATE_TIME ( #243, #252 ) ;
#124 = MANIFOLD_SOLID_BREP ( 'Zaoblit1', #59 ) ;
#125 = AXIS2_PLACEMENT_3D ( 'NONE', #58, #13, #89 ) ;
#126 = EDGE_CURVE ( 'NONE', #28, #201, #47, .T. ) ;
#127 = VECTOR ( 'NONE', #164, 1000.000000000000000 ) ;
#128 = APPROVAL ( #103, 'NEURÈENÝ' ) ;
#129 = CIRCLE ( 'NONE', #10, 2.100000000000000089 ) ;
#130 = EDGE_LOOP ( 'NONE', ( #195, #31 ) ) ;
#131 = CARTESIAN_POINT ( 'NONE',  ( 0.000000000000000000, 0.000000000000000000, 0.000000000000000000 ) ) ;
#132 = DIRECTION ( 'NONE',  ( 0.000000000000000000, 0.000000000000000000, 1.000000000000000000 ) ) ;
#133 = VERTEX_POINT ( 'NONE', #261 ) ;
#134 = DIRECTION ( 'NONE',  ( 1.000000000000000000, 0.000000000000000000, 0.000000000000000000 ) ) ;
#135 = EDGE_CURVE ( 'NONE', #271, #153, #91, .T. ) ;
#136 = AXIS2_PLACEMENT_3D ( 'NONE', #138, #141, #280 ) ;
#137 = CARTESIAN_POINT ( 'NONE',  ( 0.000000000000000000, 0.000000000000000000, 3.000000000000000000 ) ) ;
#138 = CARTESIAN_POINT ( 'NONE',  ( 0.000000000000000000, 0.000000000000000000, 128.0000000000000000 ) ) ;
#139 = ORIENTED_EDGE ( 'NONE', *, *, #21, .T. ) ;
#140 = VECTOR ( 'NONE', #257, 1000.000000000000000 ) ;
#141 = DIRECTION ( 'NONE',  ( -0.000000000000000000, -0.000000000000000000, -1.000000000000000000 ) ) ;
#142 = PLANE ( 'NONE',  #169 ) ;
#143 = DIRECTION ( 'NONE',  ( 0.000000000000000000, 0.000000000000000000, 1.000000000000000000 ) ) ;
#144 = CARTESIAN_POINT ( 'NONE',  ( 0.000000000000000000, 0.000000000000000000, 3.000000000000000000 ) ) ;
#145 = COORDINATED_UNIVERSAL_TIME_OFFSET ( 1, 0, .AHEAD. ) ;
#146 = TOROIDAL_SURFACE ( 'NONE', #192, 2.300000000000000266, 0.2000000000000000111 ) ;
#147 = PERSON_AND_ORGANIZATION ( #244, #290 ) ;
#148 = APPROVAL_PERSON_ORGANIZATION ( #1, #128, #266 ) ;
#149 = APPROVAL_DATE_TIME ( #24, #70 ) ;
#150 = EDGE_CURVE ( 'NONE', #271, #270, #176, .T. ) ;
#151 = APPROVAL_PERSON_ORGANIZATION ( #242, #70, #167 ) ;
#152 = ADVANCED_FACE ( 'NONE', ( #67 ), #142, .T. ) ;
#153 = VERTEX_POINT ( 'NONE', #118 ) ;
#154 = AXIS2_PLACEMENT_3D ( 'NONE', #16, #48, #218 ) ;
#155 = FACE_OUTER_BOUND ( 'NONE', #199, .T. ) ;
#156 = DIRECTION ( 'NONE',  ( 1.224646799147353207E-16, 1.000000000000000000, -0.000000000000000000 ) ) ;
#157 = CARTESIAN_POINT ( 'NONE',  ( -2.100000000000000089, 0.000000000000000000, 128.0000000000000000 ) ) ;
#158 = CYLINDRICAL_SURFACE ( 'NONE', #136, 2.100000000000000089 ) ;
#159 = EDGE_LOOP ( 'NONE', ( #175, #27, #7, #88 ) ) ;
#160 = APPLICATION_PROTOCOL_DEFINITION ( 'international standard', 'config_control_design', 1994, #83 ) ;
#161 =( GEOMETRIC_REPRESENTATION_CONTEXT ( 3 ) GLOBAL_UNCERTAINTY_ASSIGNED_CONTEXT ( ( #95 ) ) GLOBAL_UNIT_ASSIGNED_CONTEXT ( ( #11, #303, #283 ) ) REPRESENTATION_CONTEXT ( 'NONE', 'WORKASPACE' ) );
#162 = CYLINDRICAL_SURFACE ( 'NONE', #234, 4.000000000000000000 ) ;
#163 = CARTESIAN_POINT ( 'NONE',  ( 0.000000000000000000, 0.000000000000000000, 0.000000000000000000 ) ) ;
#164 = DIRECTION ( 'NONE',  ( -0.000000000000000000, -0.000000000000000000, -1.000000000000000000 ) ) ;
#165 = CARTESIAN_POINT ( 'NONE',  ( 0.000000000000000000, 0.000000000000000000, 0.000000000000000000 ) ) ;
#166 = DIRECTION ( 'NONE',  ( 1.000000000000000000, 0.000000000000000000, 0.000000000000000000 ) ) ;
#167 = APPROVAL_ROLE ( '' ) ;
#168 = DIRECTION ( 'NONE',  ( -1.000000000000000000, 0.000000000000000000, 0.000000000000000000 ) ) ;
#169 = AXIS2_PLACEMENT_3D ( 'NONE', #304, #143, #19 ) ;
#170 = CIRCLE ( 'NONE', #297, 2.300000000000000266 ) ;
#171 = APPLICATION_PROTOCOL_DEFINITION ( 'international standard', 'config_control_design', 1994, #55 ) ;
#172 = APPROVAL_STATUS ( 'not_yet_approved' ) ;
#173 = ORIENTED_EDGE ( 'NONE', *, *, #33, .F. ) ;
#174 = CIRCLE ( 'NONE', #38, 2.100000000000000089 ) ;
#175 = ORIENTED_EDGE ( 'NONE', *, *, #150, .F. ) ;
#176 = CIRCLE ( 'NONE', #197, 4.000000000000000000 ) ;
#177 = ORIENTED_EDGE ( 'NONE', *, *, #150, .T. ) ;
#178 = EDGE_CURVE ( 'NONE', #298, #28, #129, .T. ) ;
#179 = LINE ( 'NONE', #42, #53 ) ;
#180 = ORIENTED_EDGE ( 'NONE', *, *, #40, .T. ) ;
#181 = VERTEX_POINT ( 'NONE', #212 ) ;
#182 = CYLINDRICAL_SURFACE ( 'NONE', #209, 2.100000000000000089 ) ;
#183 = CC_DESIGN_PERSON_AND_ORGANIZATION_ASSIGNMENT ( #305, #73, ( #230 ) ) ;
#184 = AXIS2_PLACEMENT_3D ( 'NONE', #294, #39, #134 ) ;
#185 = ORIENTED_EDGE ( 'NONE', *, *, #190, .T. ) ;
#186 = FACE_OUTER_BOUND ( 'NONE', #224, .T. ) ;
#187 = DIRECTION ( 'NONE',  ( 1.000000000000000000, 0.000000000000000000, 0.000000000000000000 ) ) ;
#188 = CARTESIAN_POINT ( 'NONE',  ( 0.000000000000000000, 0.000000000000000000, 3.199999999999994404 ) ) ;
#189 = PRODUCT_DEFINITION_FORMATION_WITH_SPECIFIED_SOURCE ( 'LIBOVOLNÝ', '', #259, .NOT_KNOWN. ) ;
#190 = EDGE_CURVE ( 'NONE', #28, #298, #174, .T. ) ;
#191 = SECURITY_CLASSIFICATION_LEVEL ( 'unclassified' ) ;
#192 = AXIS2_PLACEMENT_3D ( 'NONE', #65, #57, #225 ) ;
#193 = PERSON_AND_ORGANIZATION ( #244, #290 ) ;
#194 = ADVANCED_FACE ( 'NONE', ( #120 ), #215, .F. ) ;
#195 = ORIENTED_EDGE ( 'NONE', *, *, #281, .F. ) ;
#196 = CALENDAR_DATE ( 2022, 20, 6 ) ;
#197 = AXIS2_PLACEMENT_3D ( 'NONE', #144, #302, #282 ) ;
#198 = ADVANCED_BREP_SHAPE_REPRESENTATION ( '21cd', ( #124, #154 ), #161 ) ;
#199 = EDGE_LOOP ( 'NONE', ( #251, #56, #139, #207 ) ) ;
#200 = EDGE_CURVE ( 'NONE', #133, #272, #4, .T. ) ;
#201 = VERTEX_POINT ( 'NONE', #296 ) ;
#202 = CARTESIAN_POINT ( 'NONE',  ( -4.000000000000000000, 0.000000000000000000, 3.000000000000000000 ) ) ;
#203 = LOCAL_TIME ( 12, 8, 25.00000000000000000, #306 ) ;
#204 = CARTESIAN_POINT ( 'NONE',  ( 0.000000000000000000, 0.000000000000000000, 3.000000000000000000 ) ) ;
#205 = DIRECTION ( 'NONE',  ( 1.000000000000000000, 0.000000000000000000, -0.000000000000000000 ) ) ;
#206 = LINE ( 'NONE', #157, #258 ) ;
#207 = ORIENTED_EDGE ( 'NONE', *, *, #78, .F. ) ;
#208 = FACE_OUTER_BOUND ( 'NONE', #77, .T. ) ;
#209 = AXIS2_PLACEMENT_3D ( 'NONE', #66, #36, #229 ) ;
#210 = CARTESIAN_POINT ( 'NONE',  ( 4.000000000000000000, 4.898587196589412829E-16, 3.000000000000000000 ) ) ;
#211 = DIRECTION ( 'NONE',  ( -1.000000000000000000, 1.224646799147353207E-16, 0.000000000000000000 ) ) ;
#212 = CARTESIAN_POINT ( 'NONE',  ( -2.100000000000000089, 0.000000000000000000, 3.199999999999994404 ) ) ;
#213 = COORDINATED_UNIVERSAL_TIME_OFFSET ( 1, 0, .AHEAD. ) ;
#214 = CC_DESIGN_PERSON_AND_ORGANIZATION_ASSIGNMENT ( #285, #50, ( #217 ) ) ;
#215 = PLANE ( 'NONE',  #117 ) ;
#216 = CALENDAR_DATE ( 2022, 20, 6 ) ;
#217 = SECURITY_CLASSIFICATION ( '', '', #191 ) ;
#218 = DIRECTION ( 'NONE',  ( 1.000000000000000000, 0.000000000000000000, 0.000000000000000000 ) ) ;
#219 = EDGE_CURVE ( 'NONE', #270, #292, #179, .T. ) ;
#220 = DATE_AND_TIME ( #196, #263 ) ;
#221 = APPROVAL_ROLE ( '' ) ;
#222 = AXIS2_PLACEMENT_3D ( 'NONE', #6, #32, #35 ) ;
#223 = CC_DESIGN_DATE_AND_TIME_ASSIGNMENT ( #71, #68, ( #217 ) ) ;
#224 = EDGE_LOOP ( 'NONE', ( #293, #253, #5, #173 ) ) ;
#225 = DIRECTION ( 'NONE',  ( 1.000000000000000000, 0.000000000000000000, 0.000000000000000000 ) ) ;
#226 = DIRECTION ( 'NONE',  ( 0.000000000000000000, 0.000000000000000000, 1.000000000000000000 ) ) ;
#227 = DIRECTION ( 'NONE',  ( 1.000000000000000000, 0.000000000000000000, 0.000000000000000000 ) ) ;
#228 = DIRECTION ( 'NONE',  ( 1.000000000000000000, 0.000000000000000000, 0.000000000000000000 ) ) ;
#229 = DIRECTION ( 'NONE',  ( -1.000000000000000000, 0.000000000000000000, 0.000000000000000000 ) ) ;
#230 = PRODUCT_DEFINITION ( 'NEZNÁMÝ', '', #189, #121 ) ;
#231 = FACE_OUTER_BOUND ( 'NONE', #159, .T. ) ;
#232 = CARTESIAN_POINT ( 'NONE',  ( -4.000000000000000000, 0.000000000000000000, 0.000000000000000000 ) ) ;
#233 = ORIENTED_EDGE ( 'NONE', *, *, #219, .T. ) ;
#234 = AXIS2_PLACEMENT_3D ( 'NONE', #137, #14, #80 ) ;
#235 = CYLINDRICAL_SURFACE ( 'NONE', #54, 4.000000000000000000 ) ;
#236 = DIRECTION ( 'NONE',  ( 1.000000000000000000, 0.000000000000000000, 0.000000000000000000 ) ) ;
#237 = ADVANCED_FACE ( 'NONE', ( #8 ), #158, .T. ) ;
#238 = DIRECTION ( 'NONE',  ( -0.000000000000000000, -0.000000000000000000, -1.000000000000000000 ) ) ;
#239 = DATE_TIME_ROLE ( 'creation_date' ) ;
#240 = EDGE_CURVE ( 'NONE', #201, #181, #300, .T. ) ;
#241 = TOROIDAL_SURFACE ( 'NONE', #125, 2.300000000000000266, 0.2000000000000000111 ) ;
#242 = PERSON_AND_ORGANIZATION ( #244, #290 ) ;
#243 = DATE_AND_TIME ( #216, #203 ) ;
#244 = PERSON ( 'NEURÈENÝ', 'NEURÈENÝ', 'NEURÈENÝ', ('NEURÈENÝ'), ('NEURÈENÝ'), ('NEURÈENÝ') ) ;
#245 = ORIENTED_EDGE ( 'NONE', *, *, #33, .T. ) ;
#246 = EDGE_LOOP ( 'NONE', ( #108, #249, #245, #295 ) ) ;
#247 = EDGE_LOOP ( 'NONE', ( #115, #109 ) ) ;
#248 = ADVANCED_FACE ( 'NONE', ( #110, #208 ), #301, .T. ) ;
#249 = ORIENTED_EDGE ( 'NONE', *, *, #178, .F. ) ;
#250 = DIRECTION ( 'NONE',  ( 0.000000000000000000, 0.000000000000000000, 1.000000000000000000 ) ) ;
#251 = ORIENTED_EDGE ( 'NONE', *, *, #289, .F. ) ;
#252 = APPROVAL ( #286, 'NEURÈENÝ' ) ;
#253 = ORIENTED_EDGE ( 'NONE', *, *, #126, .T. ) ;
#254 = CARTESIAN_POINT ( 'NONE',  ( -2.100000000000000089, 0.000000000000000000, 128.0000000000000000 ) ) ;
#255 = CC_DESIGN_APPROVAL ( #70, ( #217 ) ) ;
#256 = CARTESIAN_POINT ( 'NONE',  ( 2.300000000000000266, 0.000000000000000000, 3.199999999999994404 ) ) ;
#257 = DIRECTION ( 'NONE',  ( -0.000000000000000000, -0.000000000000000000, -1.000000000000000000 ) ) ;
#258 = VECTOR ( 'NONE', #9, 1000.000000000000000 ) ;
#259 = PRODUCT ( '21cd', '21cd', '', ( #26 ) ) ;
#260 = DIRECTION ( 'NONE',  ( -0.000000000000000000, -0.000000000000000000, -1.000000000000000000 ) ) ;
#261 = CARTESIAN_POINT ( 'NONE',  ( 2.300000000000000266, 0.000000000000000000, 2.999999999999997335 ) ) ;
#262 = COORDINATED_UNIVERSAL_TIME_OFFSET ( 1, 0, .AHEAD. ) ;
#263 = LOCAL_TIME ( 12, 8, 25.00000000000000000, #267 ) ;
#264 = DIRECTION ( 'NONE',  ( 1.000000000000000000, 0.000000000000000000, 0.000000000000000000 ) ) ;
#265 = AXIS2_PLACEMENT_3D ( 'NONE', #131, #226, #228 ) ;
#266 = APPROVAL_ROLE ( '' ) ;
#267 = COORDINATED_UNIVERSAL_TIME_OFFSET ( 1, 0, .AHEAD. ) ;
#268 = LOCAL_TIME ( 12, 8, 25.00000000000000000, #262 ) ;
#269 = ADVANCED_FACE ( 'NONE', ( #186 ), #182, .T. ) ;
#270 = VERTEX_POINT ( 'NONE', #202 ) ;
#271 = VERTEX_POINT ( 'NONE', #44 ) ;
#272 = VERTEX_POINT ( 'NONE', #34 ) ;
#273 = AXIS2_PLACEMENT_3D ( 'NONE', #256, #12, #41 ) ;
#274 = EDGE_LOOP ( 'NONE', ( #2, #37, #81, #111 ) ) ;
#275 = CC_DESIGN_PERSON_AND_ORGANIZATION_ASSIGNMENT ( #147, #22, ( #189 ) ) ;
#276 = ORIENTED_EDGE ( 'NONE', *, *, #281, .T. ) ;
#277 = CARTESIAN_POINT ( 'NONE',  ( -2.300000000000000266, 2.816687638038912549E-16, 3.199999999999994404 ) ) ;
#278 = CC_DESIGN_APPROVAL ( #128, ( #189 ) ) ;
#279 = CARTESIAN_POINT ( 'NONE',  ( 2.100000000000000089, 2.571758278209441957E-16, 128.0000000000000000 ) ) ;
#280 = DIRECTION ( 'NONE',  ( -1.000000000000000000, 0.000000000000000000, 0.000000000000000000 ) ) ;
#281 = EDGE_CURVE ( 'NONE', #292, #153, #79, .T. ) ;
#282 = DIRECTION ( 'NONE',  ( 1.000000000000000000, 0.000000000000000000, 0.000000000000000000 ) ) ;
#283 =( NAMED_UNIT ( * ) SI_UNIT ( $, .STERADIAN. ) SOLID_ANGLE_UNIT ( ) );
#284 = DIRECTION ( 'NONE',  ( 0.000000000000000000, 0.000000000000000000, 1.000000000000000000 ) ) ;
#285 = PERSON_AND_ORGANIZATION ( #244, #290 ) ;
#286 = APPROVAL_STATUS ( 'not_yet_approved' ) ;
#287 = CIRCLE ( 'NONE', #30, 0.2000000000000000944 ) ;
#288 = ORIENTED_EDGE ( 'NONE', *, *, #178, .T. ) ;
#289 = EDGE_CURVE ( 'NONE', #181, #272, #287, .T. ) ;
#290 = ORGANIZATION ( 'NEURÈENÝ', 'NEURÈENÝ', '' ) ;
#291 = ADVANCED_FACE ( 'NONE', ( #64 ), #241, .F. ) ;
#292 = VERTEX_POINT ( 'NONE', #232 ) ;
#293 = ORIENTED_EDGE ( 'NONE', *, *, #190, .F. ) ;
#294 = CARTESIAN_POINT ( 'NONE',  ( 0.000000000000000000, 0.000000000000000000, 3.199999999999994404 ) ) ;
#295 = ORIENTED_EDGE ( 'NONE', *, *, #99, .T. ) ;
#296 = CARTESIAN_POINT ( 'NONE',  ( 2.100000000000000089, 2.571758278209441957E-16, 3.199999999999994404 ) ) ;
#297 = AXIS2_PLACEMENT_3D ( 'NONE', #204, #84, #236 ) ;
#298 = VERTEX_POINT ( 'NONE', #254 ) ;
#299 = ORIENTED_EDGE ( 'NONE', *, *, #135, .F. ) ;
#300 = CIRCLE ( 'NONE', #184, 2.100000000000000089 ) ;
#301 = PLANE ( 'NONE',  #23 ) ;
#302 = DIRECTION ( 'NONE',  ( 0.000000000000000000, 0.000000000000000000, 1.000000000000000000 ) ) ;
#303 =( NAMED_UNIT ( * ) PLANE_ANGLE_UNIT ( ) SI_UNIT ( $, .RADIAN. ) );
#304 = CARTESIAN_POINT ( 'NONE',  ( 0.000000000000000000, 0.000000000000000000, 128.0000000000000000 ) ) ;
#305 = PERSON_AND_ORGANIZATION ( #244, #290 ) ;
#306 = COORDINATED_UNIVERSAL_TIME_OFFSET ( 1, 0, .AHEAD. ) ;
#307 = APPROVAL_DATE_TIME ( #220, #128 ) ;
ENDSEC;
END-ISO-10303-21;
