ISO-10303-21;
HEADER;
FILE_DESCRIPTION (( 'STEP AP203' ),
    '1' );
FILE_NAME ('2de8.STEP',
    '2022-06-20T10:28:17',
    ( '' ),
    ( '' ),
    'SwSTEP 2.0',
    'SolidWorks 2019',
    '' );
FILE_SCHEMA (( 'CONFIG_CONTROL_DESIGN' ));
ENDSEC;

DATA;
#1 = ORIENTED_EDGE ( 'NONE', *, *, #208, .T. ) ;
#2 = PERSON_AND_ORGANIZATION_ROLE ( 'design_owner' ) ;
#3 = EDGE_LOOP ( 'NONE', ( #216, #30, #198, #14 ) ) ;
#4 = TOROIDAL_SURFACE ( 'NONE', #47, 0.6999999999999999556, 0.2000000000000000111 ) ;
#5 = APPROVAL_PERSON_ORGANIZATION ( #24, #245, #69 ) ;
#6 = ORIENTED_EDGE ( 'NONE', *, *, #141, .T. ) ;
#7 = ORIENTED_EDGE ( 'NONE', *, *, #219, .T. ) ;
#8 = DIRECTION ( 'NONE',  ( -0.000000000000000000, -0.000000000000000000, -1.000000000000000000 ) ) ;
#9 = FACE_OUTER_BOUND ( 'NONE', #142, .T. ) ;
#10 = CC_DESIGN_APPROVAL ( #279, ( #272 ) ) ;
#11 = PERSON_AND_ORGANIZATION ( #274, #243 ) ;
#12 = EDGE_CURVE ( 'NONE', #63, #286, #283, .T. ) ;
#13 = DIRECTION ( 'NONE',  ( 1.000000000000000000, 0.000000000000000000, 0.000000000000000000 ) ) ;
#14 = ORIENTED_EDGE ( 'NONE', *, *, #62, .F. ) ;
#15 = EDGE_CURVE ( 'NONE', #173, #123, #64, .T. ) ;
#16 = CALENDAR_DATE ( 2022, 20, 6 ) ;
#17 = CARTESIAN_POINT ( 'NONE',  ( 0.000000000000000000, 0.000000000000000000, 1.199999999999999956 ) ) ;
#18 = APPLICATION_CONTEXT ( 'configuration controlled 3d designs of mechanical parts and assemblies' ) ;
#19 = CIRCLE ( 'NONE', #115, 0.2000000000000000944 ) ;
#20 = LINE ( 'NONE', #65, #133 ) ;
#21 = DIRECTION ( 'NONE',  ( 0.000000000000000000, 0.000000000000000000, 1.000000000000000000 ) ) ;
#22 = APPLICATION_PROTOCOL_DEFINITION ( 'international standard', 'config_control_design', 1994, #292 ) ;
#23 = ORIENTED_EDGE ( 'NONE', *, *, #15, .F. ) ;
#24 = PERSON_AND_ORGANIZATION ( #274, #243 ) ;
#25 = DIRECTION ( 'NONE',  ( 1.000000000000000000, 0.000000000000000000, 0.000000000000000000 ) ) ;
#26 = VECTOR ( 'NONE', #304, 1000.000000000000000 ) ;
#27 = EDGE_CURVE ( 'NONE', #63, #80, #79, .T. ) ;
#28 = ORIENTED_EDGE ( 'NONE', *, *, #102, .T. ) ;
#29 = CARTESIAN_POINT ( 'NONE',  ( 0.000000000000000000, 0.000000000000000000, 0.000000000000000000 ) ) ;
#30 = ORIENTED_EDGE ( 'NONE', *, *, #181, .T. ) ;
#31 = ORIENTED_EDGE ( 'NONE', *, *, #251, .F. ) ;
#32 = AXIS2_PLACEMENT_3D ( 'NONE', #17, #267, #153 ) ;
#33 = APPROVAL_ROLE ( '' ) ;
#34 = CIRCLE ( 'NONE', #185, 0.1999999999999999833 ) ;
#35 = MANIFOLD_SOLID_BREP ( 'Zaoblit1', #117 ) ;
#36 = ORIENTED_EDGE ( 'NONE', *, *, #181, .F. ) ;
#37 = ADVANCED_FACE ( 'NONE', ( #194 ), #229, .F. ) ;
#38 = DIRECTION ( 'NONE',  ( -0.000000000000000000, -0.000000000000000000, -1.000000000000000000 ) ) ;
#39 = CARTESIAN_POINT ( 'NONE',  ( 0.5000000000000000000, 6.123233995736766036E-17, 1.399999999999998579 ) ) ;
#40 = PERSON_AND_ORGANIZATION_ROLE ( 'creator' ) ;
#41 = LOCAL_TIME ( 12, 28, 17.00000000000000000, #252 ) ;
#42 = ADVANCED_FACE ( 'NONE', ( #237 ), #169, .T. ) ;
#43 = PLANE ( 'NONE',  #201 ) ;
#44 =( GEOMETRIC_REPRESENTATION_CONTEXT ( 3 ) GLOBAL_UNCERTAINTY_ASSIGNED_CONTEXT ( ( #217 ) ) GLOBAL_UNIT_ASSIGNED_CONTEXT ( ( #301, #94, #72 ) ) REPRESENTATION_CONTEXT ( 'NONE', 'WORKASPACE' ) );
#45 = CYLINDRICAL_SURFACE ( 'NONE', #177, 1.250000000000000000 ) ;
#46 = DIRECTION ( 'NONE',  ( -0.000000000000000000, -0.000000000000000000, -1.000000000000000000 ) ) ;
#47 = AXIS2_PLACEMENT_3D ( 'NONE', #250, #178, #244 ) ;
#48 = ADVANCED_FACE ( 'NONE', ( #273 ), #126, .T. ) ;
#49 = AXIS2_PLACEMENT_3D ( 'NONE', #233, #206, #25 ) ;
#50 = CARTESIAN_POINT ( 'NONE',  ( 0.000000000000000000, 0.000000000000000000, 101.2000000000000171 ) ) ;
#51 = CC_DESIGN_DATE_AND_TIME_ASSIGNMENT ( #248, #226, ( #68 ) ) ;
#52 = DIRECTION ( 'NONE',  ( 1.000000000000000000, 0.000000000000000000, 0.000000000000000000 ) ) ;
#53 = AXIS2_PLACEMENT_3D ( 'NONE', #196, #171, #143 ) ;
#54 = DIRECTION ( 'NONE',  ( 0.000000000000000000, 0.000000000000000000, 1.000000000000000000 ) ) ;
#55 = AXIS2_PLACEMENT_3D ( 'NONE', #139, #278, #231 ) ;
#56 = ORIENTED_EDGE ( 'NONE', *, *, #27, .F. ) ;
#57 = VERTEX_POINT ( 'NONE', #221 ) ;
#58 = ORIENTED_EDGE ( 'NONE', *, *, #62, .T. ) ;
#59 = CALENDAR_DATE ( 2022, 20, 6 ) ;
#60 = AXIS2_PLACEMENT_3D ( 'NONE', #83, #8, #176 ) ;
#61 = DIRECTION ( 'NONE',  ( -1.000000000000000000, 0.000000000000000000, 0.000000000000000000 ) ) ;
#62 = EDGE_CURVE ( 'NONE', #98, #149, #19, .T. ) ;
#63 = VERTEX_POINT ( 'NONE', #299 ) ;
#64 = CIRCLE ( 'NONE', #53, 0.5000000000000000000 ) ;
#65 = CARTESIAN_POINT ( 'NONE',  ( 0.5000000000000000000, 6.123233995736766036E-17, 101.2000000000000171 ) ) ;
#66 = FACE_OUTER_BOUND ( 'NONE', #234, .T. ) ;
#67 = DIRECTION ( 'NONE',  ( -0.000000000000000000, -0.000000000000000000, -1.000000000000000000 ) ) ;
#68 = PRODUCT_DEFINITION ( 'NEZNÁMÝ', '', #272, #127 ) ;
#69 = APPROVAL_ROLE ( '' ) ;
#70 = CARTESIAN_POINT ( 'NONE',  ( 0.000000000000000000, 0.000000000000000000, 101.2000000000000171 ) ) ;
#71 = AXIS2_PLACEMENT_3D ( 'NONE', #307, #67, #76 ) ;
#72 =( NAMED_UNIT ( * ) SI_UNIT ( $, .STERADIAN. ) SOLID_ANGLE_UNIT ( ) );
#73 = EDGE_LOOP ( 'NONE', ( #36, #121, #58, #81 ) ) ;
#74 = COORDINATED_UNIVERSAL_TIME_OFFSET ( 1, 0, .AHEAD. ) ;
#75 = EDGE_CURVE ( 'NONE', #123, #214, #264, .T. ) ;
#76 = DIRECTION ( 'NONE',  ( -1.000000000000000000, 0.000000000000000000, 0.000000000000000000 ) ) ;
#77 = ORIENTED_EDGE ( 'NONE', *, *, #223, .T. ) ;
#78 = DIRECTION ( 'NONE',  ( -0.000000000000000000, -0.000000000000000000, -1.000000000000000000 ) ) ;
#79 = CIRCLE ( 'NONE', #235, 1.250000000000000000 ) ;
#80 = VERTEX_POINT ( 'NONE', #90 ) ;
#81 = ORIENTED_EDGE ( 'NONE', *, *, #295, .F. ) ;
#82 = DIRECTION ( 'NONE',  ( -0.000000000000000000, -0.000000000000000000, -1.000000000000000000 ) ) ;
#83 = CARTESIAN_POINT ( 'NONE',  ( 0.000000000000000000, 0.000000000000000000, 101.2000000000000171 ) ) ;
#84 = CIRCLE ( 'NONE', #32, 0.6999999999999999556 ) ;
#85 = AXIS2_PLACEMENT_3D ( 'NONE', #107, #199, #13 ) ;
#86 = CARTESIAN_POINT ( 'NONE',  ( 0.6999999999999999556, 0.000000000000000000, 1.399999999999998579 ) ) ;
#87 = ADVANCED_FACE ( 'NONE', ( #151, #66 ), #157, .T. ) ;
#88 = ORIENTED_EDGE ( 'NONE', *, *, #12, .F. ) ;
#89 = DATE_AND_TIME ( #164, #41 ) ;
#90 = CARTESIAN_POINT ( 'NONE',  ( -1.250000000000000000, 0.000000000000000000, 1.199999999999999956 ) ) ;
#91 = CIRCLE ( 'NONE', #300, 0.6999999999999999556 ) ;
#92 = ADVANCED_FACE ( 'NONE', ( #293 ), #4, .F. ) ;
#93 = DIRECTION ( 'NONE',  ( 1.224646799147353207E-16, 1.000000000000000000, -0.000000000000000000 ) ) ;
#94 =( NAMED_UNIT ( * ) PLANE_ANGLE_UNIT ( ) SI_UNIT ( $, .RADIAN. ) );
#95 = PERSON_AND_ORGANIZATION_ROLE ( 'classification_officer' ) ;
#96 = CC_DESIGN_APPROVAL ( #245, ( #224 ) ) ;
#97 = DIRECTION ( 'NONE',  ( 1.000000000000000000, 0.000000000000000000, 0.000000000000000000 ) ) ;
#98 = VERTEX_POINT ( 'NONE', #39 ) ;
#99 = ORIENTED_EDGE ( 'NONE', *, *, #223, .F. ) ;
#100 = APPLICATION_PROTOCOL_DEFINITION ( 'international standard', 'config_control_design', 1994, #18 ) ;
#101 = ORIENTED_EDGE ( 'NONE', *, *, #141, .F. ) ;
#102 = EDGE_CURVE ( 'NONE', #149, #57, #84, .T. ) ;
#103 = LOCAL_TIME ( 12, 28, 17.00000000000000000, #156 ) ;
#104 = CARTESIAN_POINT ( 'NONE',  ( 1.250000000000000000, 1.530808498934191571E-16, 1.199999999999999956 ) ) ;
#105 = EDGE_LOOP ( 'NONE', ( #23, #6, #7, #242 ) ) ;
#106 = ADVANCED_FACE ( 'NONE', ( #111 ), #43, .F. ) ;
#107 = CARTESIAN_POINT ( 'NONE',  ( 0.000000000000000000, 0.000000000000000000, 0.000000000000000000 ) ) ;
#108 = CYLINDRICAL_SURFACE ( 'NONE', #60, 0.5000000000000000000 ) ;
#109 = PERSON_AND_ORGANIZATION_ROLE ( 'design_supplier' ) ;
#110 = LOCAL_TIME ( 12, 28, 17.00000000000000000, #160 ) ;
#111 = FACE_OUTER_BOUND ( 'NONE', #215, .T. ) ;
#112 = SECURITY_CLASSIFICATION_LEVEL ( 'unclassified' ) ;
#113 = DIRECTION ( 'NONE',  ( 0.000000000000000000, 0.000000000000000000, 1.000000000000000000 ) ) ;
#114 = SHAPE_DEFINITION_REPRESENTATION ( #175, #220 ) ;
#115 = AXIS2_PLACEMENT_3D ( 'NONE', #86, #218, #180 ) ;
#116 = CARTESIAN_POINT ( 'NONE',  ( 0.6999999999999999556, 0.000000000000000000, 1.199999999999999289 ) ) ;
#117 = CLOSED_SHELL ( 'NONE', ( #37, #48, #197, #155, #87, #106, #159, #42, #92 ) ) ;
#118 = EDGE_LOOP ( 'NONE', ( #56, #259, #122, #158 ) ) ;
#119 = AXIS2_PLACEMENT_3D ( 'NONE', #145, #21, #97 ) ;
#120 = CARTESIAN_POINT ( 'NONE',  ( -0.6999999999999999556, 8.572527594031471957E-17, 1.399999999999998579 ) ) ;
#121 = ORIENTED_EDGE ( 'NONE', *, *, #219, .F. ) ;
#122 = ORIENTED_EDGE ( 'NONE', *, *, #166, .T. ) ;
#123 = VERTEX_POINT ( 'NONE', #128 ) ;
#124 = AXIS2_PLACEMENT_3D ( 'NONE', #253, #302, #52 ) ;
#125 = DIRECTION ( 'NONE',  ( 0.000000000000000000, 0.000000000000000000, 1.000000000000000000 ) ) ;
#126 = CYLINDRICAL_SURFACE ( 'NONE', #247, 0.5000000000000000000 ) ;
#127 = DESIGN_CONTEXT ( 'detailed design', #18, 'design' ) ;
#128 = CARTESIAN_POINT ( 'NONE',  ( -0.5000000000000000000, 0.000000000000000000, 101.2000000000000171 ) ) ;
#129 = VECTOR ( 'NONE', #82, 1000.000000000000000 ) ;
#130 = APPROVAL_DATE_TIME ( #132, #289 ) ;
#131 = CIRCLE ( 'NONE', #85, 1.250000000000000000 ) ;
#132 = DATE_AND_TIME ( #59, #190 ) ;
#133 = VECTOR ( 'NONE', #38, 1000.000000000000000 ) ;
#134 = CARTESIAN_POINT ( 'NONE',  ( 0.000000000000000000, 0.000000000000000000, 1.199999999999999956 ) ) ;
#135 = PRODUCT_RELATED_PRODUCT_CATEGORY ( 'detail', '', ( #152 ) ) ;
#136 = APPROVAL_DATE_TIME ( #89, #245 ) ;
#137 = DIRECTION ( 'NONE',  ( 1.000000000000000000, 0.000000000000000000, -0.000000000000000000 ) ) ;
#138 = DATE_TIME_ROLE ( 'classification_date' ) ;
#139 = CARTESIAN_POINT ( 'NONE',  ( 0.000000000000000000, 0.000000000000000000, 0.000000000000000000 ) ) ;
#140 = AXIS2_PLACEMENT_3D ( 'NONE', #70, #187, #276 ) ;
#141 = EDGE_CURVE ( 'NONE', #173, #98, #20, .T. ) ;
#142 = EDGE_LOOP ( 'NONE', ( #88, #270, #1, #77 ) ) ;
#143 = DIRECTION ( 'NONE',  ( 1.000000000000000000, 0.000000000000000000, 0.000000000000000000 ) ) ;
#144 = AXIS2_PLACEMENT_3D ( 'NONE', #29, #277, #210 ) ;
#145 = CARTESIAN_POINT ( 'NONE',  ( 0.000000000000000000, 0.000000000000000000, 1.199999999999999956 ) ) ;
#146 = DIRECTION ( 'NONE',  ( 1.000000000000000000, 0.000000000000000000, 0.000000000000000000 ) ) ;
#147 = EDGE_LOOP ( 'NONE', ( #101, #31, #192, #225 ) ) ;
#148 = PERSON_AND_ORGANIZATION ( #274, #243 ) ;
#149 = VERTEX_POINT ( 'NONE', #116 ) ;
#150 = CIRCLE ( 'NONE', #119, 1.250000000000000000 ) ;
#151 = FACE_BOUND ( 'NONE', #254, .T. ) ;
#152 = PRODUCT ( '2de8', '2de8', '', ( #257 ) ) ;
#153 = DIRECTION ( 'NONE',  ( 1.000000000000000000, 0.000000000000000000, 0.000000000000000000 ) ) ;
#154 = AXIS2_PLACEMENT_3D ( 'NONE', #291, #269, #228 ) ;
#155 = ADVANCED_FACE ( 'NONE', ( #9 ), #45, .T. ) ;
#156 = COORDINATED_UNIVERSAL_TIME_OFFSET ( 1, 0, .AHEAD. ) ;
#157 = PLANE ( 'NONE',  #154 ) ;
#158 = ORIENTED_EDGE ( 'NONE', *, *, #208, .F. ) ;
#159 = ADVANCED_FACE ( 'NONE', ( #227 ), #108, .T. ) ;
#160 = COORDINATED_UNIVERSAL_TIME_OFFSET ( 1, 0, .AHEAD. ) ;
#161 = DIRECTION ( 'NONE',  ( -0.000000000000000000, -0.000000000000000000, -1.000000000000000000 ) ) ;
#162 = PERSON_AND_ORGANIZATION ( #274, #243 ) ;
#163 = CARTESIAN_POINT ( 'NONE',  ( 0.000000000000000000, 0.000000000000000000, 0.000000000000000000 ) ) ;
#164 = CALENDAR_DATE ( 2022, 20, 6 ) ;
#165 = DIRECTION ( 'NONE',  ( 1.000000000000000000, 0.000000000000000000, 0.000000000000000000 ) ) ;
#166 = EDGE_CURVE ( 'NONE', #286, #172, #131, .T. ) ;
#167 = CIRCLE ( 'NONE', #140, 0.5000000000000000000 ) ;
#168 = LINE ( 'NONE', #170, #26 ) ;
#169 = PLANE ( 'NONE',  #205 ) ;
#170 = CARTESIAN_POINT ( 'NONE',  ( -1.250000000000000000, 0.000000000000000000, 1.199999999999999956 ) ) ;
#171 = DIRECTION ( 'NONE',  ( 0.000000000000000000, 0.000000000000000000, 1.000000000000000000 ) ) ;
#172 = VERTEX_POINT ( 'NONE', #202 ) ;
#173 = VERTEX_POINT ( 'NONE', #303 ) ;
#174 = CARTESIAN_POINT ( 'NONE',  ( 0.000000000000000000, 0.000000000000000000, 1.199999999999999956 ) ) ;
#175 = PRODUCT_DEFINITION_SHAPE ( 'NONE', 'NONE',  #68 ) ;
#176 = DIRECTION ( 'NONE',  ( -1.000000000000000000, 0.000000000000000000, 0.000000000000000000 ) ) ;
#177 = AXIS2_PLACEMENT_3D ( 'NONE', #134, #161, #290 ) ;
#178 = DIRECTION ( 'NONE',  ( 0.000000000000000000, 0.000000000000000000, 1.000000000000000000 ) ) ;
#179 = CC_DESIGN_PERSON_AND_ORGANIZATION_ASSIGNMENT ( #11, #109, ( #272 ) ) ;
#180 = DIRECTION ( 'NONE',  ( 0.000000000000000000, 0.000000000000000000, -1.000000000000000000 ) ) ;
#181 = EDGE_CURVE ( 'NONE', #214, #57, #34, .T. ) ;
#182 = CALENDAR_DATE ( 2022, 20, 6 ) ;
#183 = DIRECTION ( 'NONE',  ( -0.000000000000000000, -0.000000000000000000, -1.000000000000000000 ) ) ;
#184 = APPROVAL_STATUS ( 'not_yet_approved' ) ;
#185 = AXIS2_PLACEMENT_3D ( 'NONE', #120, #93, #255 ) ;
#186 = CALENDAR_DATE ( 2022, 20, 6 ) ;
#187 = DIRECTION ( 'NONE',  ( 0.000000000000000000, 0.000000000000000000, 1.000000000000000000 ) ) ;
#188 = PERSON_AND_ORGANIZATION ( #274, #243 ) ;
#189 = AXIS2_PLACEMENT_3D ( 'NONE', #256, #54, #238 ) ;
#190 = LOCAL_TIME ( 12, 28, 17.00000000000000000, #288 ) ;
#191 = CYLINDRICAL_SURFACE ( 'NONE', #71, 1.250000000000000000 ) ;
#192 = ORIENTED_EDGE ( 'NONE', *, *, #75, .T. ) ;
#193 = ORIENTED_EDGE ( 'NONE', *, *, #251, .T. ) ;
#194 = FACE_OUTER_BOUND ( 'NONE', #3, .T. ) ;
#195 = PERSON_AND_ORGANIZATION ( #274, #243 ) ;
#196 = CARTESIAN_POINT ( 'NONE',  ( 0.000000000000000000, 0.000000000000000000, 101.2000000000000171 ) ) ;
#197 = ADVANCED_FACE ( 'NONE', ( #213 ), #191, .T. ) ;
#198 = ORIENTED_EDGE ( 'NONE', *, *, #102, .F. ) ;
#199 = DIRECTION ( 'NONE',  ( 0.000000000000000000, 0.000000000000000000, 1.000000000000000000 ) ) ;
#200 = APPROVAL_PERSON_ORGANIZATION ( #148, #289, #33 ) ;
#201 = AXIS2_PLACEMENT_3D ( 'NONE', #163, #113, #137 ) ;
#202 = CARTESIAN_POINT ( 'NONE',  ( -1.250000000000000000, 0.000000000000000000, 0.000000000000000000 ) ) ;
#203 = DATE_AND_TIME ( #16, #110 ) ;
#204 = DIRECTION ( 'NONE',  ( 1.000000000000000000, 0.000000000000000000, -0.000000000000000000 ) ) ;
#205 = AXIS2_PLACEMENT_3D ( 'NONE', #50, #306, #204 ) ;
#206 = DIRECTION ( 'NONE',  ( 0.000000000000000000, 0.000000000000000000, 1.000000000000000000 ) ) ;
#207 = CC_DESIGN_SECURITY_CLASSIFICATION ( #224, ( #272 ) ) ;
#208 = EDGE_CURVE ( 'NONE', #80, #172, #168, .T. ) ;
#209 = CARTESIAN_POINT ( 'NONE',  ( -0.5000000000000000000, 0.000000000000000000, 1.399999999999998579 ) ) ;
#210 = DIRECTION ( 'NONE',  ( 1.000000000000000000, 0.000000000000000000, 0.000000000000000000 ) ) ;
#211 = EDGE_CURVE ( 'NONE', #80, #63, #150, .T. ) ;
#212 = ORIENTED_EDGE ( 'NONE', *, *, #211, .T. ) ;
#213 = FACE_OUTER_BOUND ( 'NONE', #118, .T. ) ;
#214 = VERTEX_POINT ( 'NONE', #209 ) ;
#215 = EDGE_LOOP ( 'NONE', ( #99, #260 ) ) ;
#216 = ORIENTED_EDGE ( 'NONE', *, *, #230, .F. ) ;
#217 = UNCERTAINTY_MEASURE_WITH_UNIT (LENGTH_MEASURE( 1.000000000000000082E-05 ), #301, 'distance_accuracy_value', 'NONE');
#218 = DIRECTION ( 'NONE',  ( 0.000000000000000000, -1.000000000000000000, 0.000000000000000000 ) ) ;
#219 = EDGE_CURVE ( 'NONE', #98, #214, #222, .T. ) ;
#220 = ADVANCED_BREP_SHAPE_REPRESENTATION ( '2de8', ( #35, #55 ), #44 ) ;
#221 = CARTESIAN_POINT ( 'NONE',  ( -0.6999999999999999556, 8.572527594031473190E-17, 1.199999999999999289 ) ) ;
#222 = CIRCLE ( 'NONE', #124, 0.5000000000000000000 ) ;
#223 = EDGE_CURVE ( 'NONE', #172, #286, #305, .T. ) ;
#224 = SECURITY_CLASSIFICATION ( '', '', #112 ) ;
#225 = ORIENTED_EDGE ( 'NONE', *, *, #230, .T. ) ;
#226 = DATE_TIME_ROLE ( 'creation_date' ) ;
#227 = FACE_OUTER_BOUND ( 'NONE', #147, .T. ) ;
#228 = DIRECTION ( 'NONE',  ( 1.000000000000000000, 0.000000000000000000, -0.000000000000000000 ) ) ;
#229 = TOROIDAL_SURFACE ( 'NONE', #189, 0.6999999999999999556, 0.2000000000000000111 ) ;
#230 = EDGE_CURVE ( 'NONE', #214, #98, #232, .T. ) ;
#231 = DIRECTION ( 'NONE',  ( 1.000000000000000000, 0.000000000000000000, 0.000000000000000000 ) ) ;
#232 = CIRCLE ( 'NONE', #49, 0.5000000000000000000 ) ;
#233 = CARTESIAN_POINT ( 'NONE',  ( 0.000000000000000000, 0.000000000000000000, 1.399999999999998579 ) ) ;
#234 = EDGE_LOOP ( 'NONE', ( #212, #239 ) ) ;
#235 = AXIS2_PLACEMENT_3D ( 'NONE', #174, #125, #146 ) ;
#236 = CC_DESIGN_APPROVAL ( #289, ( #68 ) ) ;
#237 = FACE_OUTER_BOUND ( 'NONE', #261, .T. ) ;
#238 = DIRECTION ( 'NONE',  ( 1.000000000000000000, 0.000000000000000000, 0.000000000000000000 ) ) ;
#239 = ORIENTED_EDGE ( 'NONE', *, *, #27, .T. ) ;
#240 = CC_DESIGN_PERSON_AND_ORGANIZATION_ASSIGNMENT ( #195, #2, ( #152 ) ) ;
#241 = APPROVAL_STATUS ( 'not_yet_approved' ) ;
#242 = ORIENTED_EDGE ( 'NONE', *, *, #75, .F. ) ;
#243 = ORGANIZATION ( 'NEURÈENÝ', 'NEURÈENÝ', '' ) ;
#244 = DIRECTION ( 'NONE',  ( 1.000000000000000000, 0.000000000000000000, 0.000000000000000000 ) ) ;
#245 = APPROVAL ( #184, 'NEURÈENÝ' ) ;
#246 = CARTESIAN_POINT ( 'NONE',  ( 0.000000000000000000, 0.000000000000000000, 101.2000000000000171 ) ) ;
#247 = AXIS2_PLACEMENT_3D ( 'NONE', #246, #183, #61 ) ;
#248 = DATE_AND_TIME ( #182, #103 ) ;
#249 = CARTESIAN_POINT ( 'NONE',  ( -0.5000000000000000000, 0.000000000000000000, 101.2000000000000171 ) ) ;
#250 = CARTESIAN_POINT ( 'NONE',  ( 0.000000000000000000, 0.000000000000000000, 1.399999999999998579 ) ) ;
#251 = EDGE_CURVE ( 'NONE', #123, #173, #167, .T. ) ;
#252 = COORDINATED_UNIVERSAL_TIME_OFFSET ( 1, 0, .AHEAD. ) ;
#253 = CARTESIAN_POINT ( 'NONE',  ( 0.000000000000000000, 0.000000000000000000, 1.399999999999998579 ) ) ;
#254 = EDGE_LOOP ( 'NONE', ( #28, #287 ) ) ;
#255 = DIRECTION ( 'NONE',  ( -1.000000000000000000, 1.224646799147352714E-16, 0.000000000000000000 ) ) ;
#256 = CARTESIAN_POINT ( 'NONE',  ( 0.000000000000000000, 0.000000000000000000, 1.399999999999998579 ) ) ;
#257 = MECHANICAL_CONTEXT ( 'NONE', #292, 'mechanical' ) ;
#258 = LOCAL_TIME ( 12, 28, 17.00000000000000000, #74 ) ;
#259 = ORIENTED_EDGE ( 'NONE', *, *, #12, .T. ) ;
#260 = ORIENTED_EDGE ( 'NONE', *, *, #166, .F. ) ;
#261 = EDGE_LOOP ( 'NONE', ( #193, #281 ) ) ;
#262 = APPROVAL_PERSON_ORGANIZATION ( #265, #279, #294 ) ;
#263 = CC_DESIGN_PERSON_AND_ORGANIZATION_ASSIGNMENT ( #296, #297, ( #68 ) ) ;
#264 = LINE ( 'NONE', #249, #284 ) ;
#265 = PERSON_AND_ORGANIZATION ( #274, #243 ) ;
#266 = CC_DESIGN_PERSON_AND_ORGANIZATION_ASSIGNMENT ( #162, #40, ( #272 ) ) ;
#267 = DIRECTION ( 'NONE',  ( -0.000000000000000000, -0.000000000000000000, -1.000000000000000000 ) ) ;
#268 = APPROVAL_STATUS ( 'not_yet_approved' ) ;
#269 = DIRECTION ( 'NONE',  ( 0.000000000000000000, 0.000000000000000000, 1.000000000000000000 ) ) ;
#270 = ORIENTED_EDGE ( 'NONE', *, *, #211, .F. ) ;
#271 = APPROVAL_DATE_TIME ( #203, #279 ) ;
#272 = PRODUCT_DEFINITION_FORMATION_WITH_SPECIFIED_SOURCE ( 'LIBOVOLNÝ', '', #152, .NOT_KNOWN. ) ;
#273 = FACE_OUTER_BOUND ( 'NONE', #105, .T. ) ;
#274 = PERSON ( 'NEURÈENÝ', 'NEURÈENÝ', 'NEURÈENÝ', ('NEURÈENÝ'), ('NEURÈENÝ'), ('NEURÈENÝ') ) ;
#275 = DATE_AND_TIME ( #186, #258 ) ;
#276 = DIRECTION ( 'NONE',  ( 1.000000000000000000, 0.000000000000000000, 0.000000000000000000 ) ) ;
#277 = DIRECTION ( 'NONE',  ( 0.000000000000000000, 0.000000000000000000, 1.000000000000000000 ) ) ;
#278 = DIRECTION ( 'NONE',  ( 0.000000000000000000, 0.000000000000000000, 1.000000000000000000 ) ) ;
#279 = APPROVAL ( #268, 'NEURÈENÝ' ) ;
#280 = CARTESIAN_POINT ( 'NONE',  ( 1.250000000000000000, 1.530808498934191571E-16, 0.000000000000000000 ) ) ;
#281 = ORIENTED_EDGE ( 'NONE', *, *, #15, .T. ) ;
#282 = CARTESIAN_POINT ( 'NONE',  ( 0.000000000000000000, 0.000000000000000000, 1.199999999999999956 ) ) ;
#283 = LINE ( 'NONE', #104, #129 ) ;
#284 = VECTOR ( 'NONE', #46, 1000.000000000000000 ) ;
#285 = CC_DESIGN_PERSON_AND_ORGANIZATION_ASSIGNMENT ( #188, #95, ( #224 ) ) ;
#286 = VERTEX_POINT ( 'NONE', #280 ) ;
#287 = ORIENTED_EDGE ( 'NONE', *, *, #295, .T. ) ;
#288 = COORDINATED_UNIVERSAL_TIME_OFFSET ( 1, 0, .AHEAD. ) ;
#289 = APPROVAL ( #241, 'NEURÈENÝ' ) ;
#290 = DIRECTION ( 'NONE',  ( -1.000000000000000000, 0.000000000000000000, 0.000000000000000000 ) ) ;
#291 = CARTESIAN_POINT ( 'NONE',  ( 0.000000000000000000, 0.000000000000000000, 1.199999999999999956 ) ) ;
#292 = APPLICATION_CONTEXT ( 'configuration controlled 3d designs of mechanical parts and assemblies' ) ;
#293 = FACE_OUTER_BOUND ( 'NONE', #73, .T. ) ;
#294 = APPROVAL_ROLE ( '' ) ;
#295 = EDGE_CURVE ( 'NONE', #57, #149, #91, .T. ) ;
#296 = PERSON_AND_ORGANIZATION ( #274, #243 ) ;
#297 = PERSON_AND_ORGANIZATION_ROLE ( 'creator' ) ;
#298 = CC_DESIGN_DATE_AND_TIME_ASSIGNMENT ( #275, #138, ( #224 ) ) ;
#299 = CARTESIAN_POINT ( 'NONE',  ( 1.250000000000000000, 1.530808498934191571E-16, 1.199999999999999956 ) ) ;
#300 = AXIS2_PLACEMENT_3D ( 'NONE', #282, #78, #165 ) ;
#301 =( LENGTH_UNIT ( ) NAMED_UNIT ( * ) SI_UNIT ( .MILLI., .METRE. ) );
#302 = DIRECTION ( 'NONE',  ( 0.000000000000000000, 0.000000000000000000, 1.000000000000000000 ) ) ;
#303 = CARTESIAN_POINT ( 'NONE',  ( 0.5000000000000000000, 6.123233995736766036E-17, 101.2000000000000171 ) ) ;
#304 = DIRECTION ( 'NONE',  ( -0.000000000000000000, -0.000000000000000000, -1.000000000000000000 ) ) ;
#305 = CIRCLE ( 'NONE', #144, 1.250000000000000000 ) ;
#306 = DIRECTION ( 'NONE',  ( 0.000000000000000000, 0.000000000000000000, 1.000000000000000000 ) ) ;
#307 = CARTESIAN_POINT ( 'NONE',  ( 0.000000000000000000, 0.000000000000000000, 1.199999999999999956 ) ) ;
ENDSEC;
END-ISO-10303-21;
