ISO-10303-21;
HEADER;
FILE_DESCRIPTION (( 'STEP AP203' ),
    '1' );
FILE_NAME ('e0d0.STEP',
    '2022-06-20T09:47:50',
    ( '' ),
    ( '' ),
    'SwSTEP 2.0',
    'SolidWorks 2019',
    '' );
FILE_SCHEMA (( 'CONFIG_CONTROL_DESIGN' ));
ENDSEC;

DATA;
#1 = PERSON_AND_ORGANIZATION ( #150, #233 ) ;
#2 = PERSON_AND_ORGANIZATION ( #150, #233 ) ;
#3 = ORIENTED_EDGE ( 'NONE', *, *, #300, .F. ) ;
#4 = ORIENTED_EDGE ( 'NONE', *, *, #39, .F. ) ;
#5 = CC_DESIGN_PERSON_AND_ORGANIZATION_ASSIGNMENT ( #77, #139, ( #299 ) ) ;
#6 = DATE_AND_TIME ( #189, #204 ) ;
#7 = VERTEX_POINT ( 'NONE', #156 ) ;
#8 = PERSON_AND_ORGANIZATION_ROLE ( 'classification_officer' ) ;
#9 = ORIENTED_EDGE ( 'NONE', *, *, #67, .T. ) ;
#10 =( GEOMETRIC_REPRESENTATION_CONTEXT ( 3 ) GLOBAL_UNCERTAINTY_ASSIGNED_CONTEXT ( ( #21 ) ) GLOBAL_UNIT_ASSIGNED_CONTEXT ( ( #234, #298, #249 ) ) REPRESENTATION_CONTEXT ( 'NONE', 'WORKASPACE' ) );
#11 = EDGE_LOOP ( 'NONE', ( #262, #287, #281, #213 ) ) ;
#12 = CARTESIAN_POINT ( 'NONE',  ( 0.000000000000000000, 0.000000000000000000, 5.000000000000000000 ) ) ;
#13 = DIRECTION ( 'NONE',  ( -0.000000000000000000, -0.000000000000000000, -1.000000000000000000 ) ) ;
#14 = AXIS2_PLACEMENT_3D ( 'NONE', #135, #241, #170 ) ;
#15 = DIRECTION ( 'NONE',  ( -0.000000000000000000, -0.000000000000000000, -1.000000000000000000 ) ) ;
#16 = PLANE ( 'NONE',  #95 ) ;
#17 = FACE_BOUND ( 'NONE', #190, .T. ) ;
#18 = DIRECTION ( 'NONE',  ( 0.000000000000000000, 0.000000000000000000, 1.000000000000000000 ) ) ;
#19 = LOCAL_TIME ( 11, 47, 50.00000000000000000, #194 ) ;
#20 = CARTESIAN_POINT ( 'NONE',  ( 4.200000000000000178, 0.000000000000000000, 5.199999999999982414 ) ) ;
#21 = UNCERTAINTY_MEASURE_WITH_UNIT (LENGTH_MEASURE( 1.000000000000000082E-05 ), #234, 'distance_accuracy_value', 'NONE');
#22 = DIRECTION ( 'NONE',  ( 1.000000000000000000, 0.000000000000000000, 0.000000000000000000 ) ) ;
#23 = ADVANCED_FACE ( 'NONE', ( #202 ), #180, .T. ) ;
#24 = CARTESIAN_POINT ( 'NONE',  ( -4.200000000000000178, 5.143516556418882928E-16, 4.999999999999991118 ) ) ;
#25 = CIRCLE ( 'NONE', #64, 7.000000000000000000 ) ;
#26 = CIRCLE ( 'NONE', #40, 4.000000000000000000 ) ;
#27 = ADVANCED_BREP_SHAPE_REPRESENTATION ( 'e0d0', ( #222, #14 ), #10 ) ;
#28 = PERSON_AND_ORGANIZATION ( #150, #233 ) ;
#29 = PERSON_AND_ORGANIZATION ( #150, #233 ) ;
#30 = EDGE_LOOP ( 'NONE', ( #169, #4, #284, #151 ) ) ;
#31 = APPROVAL_STATUS ( 'not_yet_approved' ) ;
#32 = VERTEX_POINT ( 'NONE', #248 ) ;
#33 = PERSON_AND_ORGANIZATION_ROLE ( 'creator' ) ;
#34 = ORIENTED_EDGE ( 'NONE', *, *, #231, .F. ) ;
#35 = AXIS2_PLACEMENT_3D ( 'NONE', #247, #59, #226 ) ;
#36 = LOCAL_TIME ( 11, 47, 50.00000000000000000, #123 ) ;
#37 = FACE_OUTER_BOUND ( 'NONE', #11, .T. ) ;
#38 = ADVANCED_FACE ( 'NONE', ( #37 ), #152, .T. ) ;
#39 = EDGE_CURVE ( 'NONE', #140, #32, #115, .T. ) ;
#40 = AXIS2_PLACEMENT_3D ( 'NONE', #177, #267, #128 ) ;
#41 = DIRECTION ( 'NONE',  ( -0.000000000000000000, -0.000000000000000000, -1.000000000000000000 ) ) ;
#42 = DIRECTION ( 'NONE',  ( 0.000000000000000000, 0.000000000000000000, 1.000000000000000000 ) ) ;
#43 = DIRECTION ( 'NONE',  ( -1.000000000000000000, 0.000000000000000000, 0.000000000000000000 ) ) ;
#44 = DIRECTION ( 'NONE',  ( 0.000000000000000000, 0.000000000000000000, 1.000000000000000000 ) ) ;
#45 = CYLINDRICAL_SURFACE ( 'NONE', #66, 7.000000000000000000 ) ;
#46 = CC_DESIGN_APPROVAL ( #293, ( #299 ) ) ;
#47 = EDGE_CURVE ( 'NONE', #54, #237, #288, .T. ) ;
#48 = PERSON_AND_ORGANIZATION ( #150, #233 ) ;
#49 = ORIENTED_EDGE ( 'NONE', *, *, #47, .T. ) ;
#50 = DATE_TIME_ROLE ( 'creation_date' ) ;
#51 = ORIENTED_EDGE ( 'NONE', *, *, #155, .F. ) ;
#52 = CC_DESIGN_DATE_AND_TIME_ASSIGNMENT ( #121, #96, ( #184 ) ) ;
#53 = MECHANICAL_CONTEXT ( 'NONE', #85, 'mechanical' ) ;
#54 = VERTEX_POINT ( 'NONE', #179 ) ;
#55 = CALENDAR_DATE ( 2022, 20, 6 ) ;
#56 = APPLICATION_CONTEXT ( 'configuration controlled 3d designs of mechanical parts and assemblies' ) ;
#57 = APPROVAL_DATE_TIME ( #187, #293 ) ;
#58 = EDGE_LOOP ( 'NONE', ( #3, #142, #49, #172 ) ) ;
#59 = DIRECTION ( 'NONE',  ( -0.000000000000000000, -0.000000000000000000, -1.000000000000000000 ) ) ;
#60 = VECTOR ( 'NONE', #13, 1000.000000000000000 ) ;
#61 = CARTESIAN_POINT ( 'NONE',  ( 0.000000000000000000, 0.000000000000000000, 0.000000000000000000 ) ) ;
#62 = CARTESIAN_POINT ( 'NONE',  ( 4.200000000000000178, 0.000000000000000000, 4.999999999999991118 ) ) ;
#63 = LINE ( 'NONE', #294, #60 ) ;
#64 = AXIS2_PLACEMENT_3D ( 'NONE', #210, #18, #306 ) ;
#65 = CARTESIAN_POINT ( 'NONE',  ( 0.000000000000000000, 0.000000000000000000, 1004.999999999999886 ) ) ;
#66 = AXIS2_PLACEMENT_3D ( 'NONE', #165, #230, #43 ) ;
#67 = EDGE_CURVE ( 'NONE', #112, #7, #157, .T. ) ;
#68 = EDGE_CURVE ( 'NONE', #32, #54, #63, .T. ) ;
#69 = PLANE ( 'NONE',  #79 ) ;
#70 = CARTESIAN_POINT ( 'NONE',  ( 0.000000000000000000, 0.000000000000000000, 5.199999999999982414 ) ) ;
#71 = SHAPE_DEFINITION_REPRESENTATION ( #254, #27 ) ;
#72 = AXIS2_PLACEMENT_3D ( 'NONE', #65, #109, #269 ) ;
#73 = EDGE_LOOP ( 'NONE', ( #120, #219, #145, #76 ) ) ;
#74 = CC_DESIGN_PERSON_AND_ORGANIZATION_ASSIGNMENT ( #28, #255, ( #220 ) ) ;
#75 = EDGE_LOOP ( 'NONE', ( #216, #51, #238, #99 ) ) ;
#76 = ORIENTED_EDGE ( 'NONE', *, *, #271, .T. ) ;
#77 = PERSON_AND_ORGANIZATION ( #150, #233 ) ;
#78 = VERTEX_POINT ( 'NONE', #62 ) ;
#79 = AXIS2_PLACEMENT_3D ( 'NONE', #163, #162, #117 ) ;
#80 = CARTESIAN_POINT ( 'NONE',  ( 4.000000000000000000, 4.898587196589412829E-16, 1004.999999999999886 ) ) ;
#81 = CARTESIAN_POINT ( 'NONE',  ( -7.000000000000000000, 0.000000000000000000, 5.000000000000000000 ) ) ;
#82 = AXIS2_PLACEMENT_3D ( 'NONE', #303, #138, #92 ) ;
#83 = CARTESIAN_POINT ( 'NONE',  ( 0.000000000000000000, 0.000000000000000000, 5.000000000000000000 ) ) ;
#84 = FACE_OUTER_BOUND ( 'NONE', #58, .T. ) ;
#85 = APPLICATION_CONTEXT ( 'configuration controlled 3d designs of mechanical parts and assemblies' ) ;
#86 = DIRECTION ( 'NONE',  ( 0.000000000000000000, 0.000000000000000000, 1.000000000000000000 ) ) ;
#87 = LOCAL_TIME ( 11, 47, 50.00000000000000000, #149 ) ;
#88 = CC_DESIGN_APPROVAL ( #144, ( #184 ) ) ;
#89 = DIRECTION ( 'NONE',  ( 0.000000000000000000, 0.000000000000000000, 1.000000000000000000 ) ) ;
#90 = ADVANCED_FACE ( 'NONE', ( #84 ), #273, .T. ) ;
#91 = FACE_OUTER_BOUND ( 'NONE', #75, .T. ) ;
#92 = DIRECTION ( 'NONE',  ( 1.000000000000000000, 0.000000000000000000, 0.000000000000000000 ) ) ;
#93 = CIRCLE ( 'NONE', #261, 0.1999999999999996503 ) ;
#94 = ADVANCED_FACE ( 'NONE', ( #161 ), #16, .T. ) ;
#95 = AXIS2_PLACEMENT_3D ( 'NONE', #129, #42, #221 ) ;
#96 = DATE_TIME_ROLE ( 'classification_date' ) ;
#97 = EDGE_LOOP ( 'NONE', ( #193, #148, #240, #34 ) ) ;
#98 = CALENDAR_DATE ( 2022, 20, 6 ) ;
#99 = ORIENTED_EDGE ( 'NONE', *, *, #195, .F. ) ;
#100 = APPROVAL_DATE_TIME ( #6, #144 ) ;
#101 = ORIENTED_EDGE ( 'NONE', *, *, #133, .T. ) ;
#102 = CC_DESIGN_PERSON_AND_ORGANIZATION_ASSIGNMENT ( #29, #33, ( #299 ) ) ;
#103 = APPROVAL_DATE_TIME ( #147, #167 ) ;
#104 = EDGE_LOOP ( 'NONE', ( #124, #256 ) ) ;
#105 = APPROVAL_PERSON_ORGANIZATION ( #119, #144, #211 ) ;
#106 = EDGE_CURVE ( 'NONE', #112, #192, #132, .T. ) ;
#107 = ORIENTED_EDGE ( 'NONE', *, *, #305, .T. ) ;
#108 = CARTESIAN_POINT ( 'NONE',  ( -7.000000000000000000, 0.000000000000000000, 5.000000000000000000 ) ) ;
#109 = DIRECTION ( 'NONE',  ( 0.000000000000000000, 0.000000000000000000, 1.000000000000000000 ) ) ;
#110 = DIRECTION ( 'NONE',  ( -0.000000000000000000, -0.000000000000000000, -1.000000000000000000 ) ) ;
#111 = ADVANCED_FACE ( 'NONE', ( #17, #198 ), #291, .T. ) ;
#112 = VERTEX_POINT ( 'NONE', #80 ) ;
#113 = DIRECTION ( 'NONE',  ( -0.000000000000000000, -0.000000000000000000, -1.000000000000000000 ) ) ;
#114 = FACE_OUTER_BOUND ( 'NONE', #104, .T. ) ;
#115 = CIRCLE ( 'NONE', #203, 7.000000000000000000 ) ;
#116 = DESIGN_CONTEXT ( 'detailed design', #56, 'design' ) ;
#117 = DIRECTION ( 'NONE',  ( 1.000000000000000000, 0.000000000000000000, -0.000000000000000000 ) ) ;
#118 = COORDINATED_UNIVERSAL_TIME_OFFSET ( 1, 0, .AHEAD. ) ;
#119 = PERSON_AND_ORGANIZATION ( #150, #233 ) ;
#120 = ORIENTED_EDGE ( 'NONE', *, *, #106, .F. ) ;
#121 = DATE_AND_TIME ( #125, #36 ) ;
#122 = ORIENTED_EDGE ( 'NONE', *, *, #300, .T. ) ;
#123 = COORDINATED_UNIVERSAL_TIME_OFFSET ( 1, 0, .AHEAD. ) ;
#124 = ORIENTED_EDGE ( 'NONE', *, *, #295, .F. ) ;
#125 = CALENDAR_DATE ( 2022, 20, 6 ) ;
#126 = ORIENTED_EDGE ( 'NONE', *, *, #39, .T. ) ;
#127 = DIRECTION ( 'NONE',  ( -1.000000000000000000, 0.000000000000000000, 0.000000000000000000 ) ) ;
#128 = DIRECTION ( 'NONE',  ( 1.000000000000000000, 0.000000000000000000, 0.000000000000000000 ) ) ;
#129 = CARTESIAN_POINT ( 'NONE',  ( 0.000000000000000000, 0.000000000000000000, 1004.999999999999886 ) ) ;
#130 = AXIS2_PLACEMENT_3D ( 'NONE', #228, #277, #253 ) ;
#131 = DIRECTION ( 'NONE',  ( 0.000000000000000000, 0.000000000000000000, 1.000000000000000000 ) ) ;
#132 = LINE ( 'NONE', #227, #208 ) ;
#133 = EDGE_CURVE ( 'NONE', #78, #282, #158, .T. ) ;
#134 = VECTOR ( 'NONE', #110, 1000.000000000000000 ) ;
#135 = CARTESIAN_POINT ( 'NONE',  ( 0.000000000000000000, 0.000000000000000000, 0.000000000000000000 ) ) ;
#136 = DIRECTION ( 'NONE',  ( -1.000000000000000000, 1.224646799147353454E-16, 0.000000000000000000 ) ) ;
#137 = DIRECTION ( 'NONE',  ( 1.000000000000000000, 0.000000000000000000, 0.000000000000000000 ) ) ;
#138 = DIRECTION ( 'NONE',  ( 0.000000000000000000, 0.000000000000000000, 1.000000000000000000 ) ) ;
#139 = PERSON_AND_ORGANIZATION_ROLE ( 'design_supplier' ) ;
#140 = VERTEX_POINT ( 'NONE', #108 ) ;
#141 = EDGE_CURVE ( 'NONE', #140, #237, #199, .T. ) ;
#142 = ORIENTED_EDGE ( 'NONE', *, *, #68, .T. ) ;
#143 = APPROVAL_STATUS ( 'not_yet_approved' ) ;
#144 = APPROVAL ( #280, 'NEURÈENÝ' ) ;
#145 = ORIENTED_EDGE ( 'NONE', *, *, #243, .T. ) ;
#146 = CC_DESIGN_SECURITY_CLASSIFICATION ( #184, ( #299 ) ) ;
#147 = DATE_AND_TIME ( #55, #19 ) ;
#148 = ORIENTED_EDGE ( 'NONE', *, *, #214, .T. ) ;
#149 = COORDINATED_UNIVERSAL_TIME_OFFSET ( 1, 0, .AHEAD. ) ;
#150 = PERSON ( 'NEURÈENÝ', 'NEURÈENÝ', 'NEURÈENÝ', ('NEURÈENÝ'), ('NEURÈENÝ'), ('NEURÈENÝ') ) ;
#151 = ORIENTED_EDGE ( 'NONE', *, *, #295, .T. ) ;
#152 = CYLINDRICAL_SURFACE ( 'NONE', #188, 4.000000000000000000 ) ;
#153 = DIRECTION ( 'NONE',  ( -1.000000000000000000, 0.000000000000000000, 0.000000000000000000 ) ) ;
#154 = DIRECTION ( 'NONE',  ( 0.000000000000000000, 0.000000000000000000, 1.000000000000000000 ) ) ;
#155 = EDGE_CURVE ( 'NONE', #192, #242, #26, .T. ) ;
#156 = CARTESIAN_POINT ( 'NONE',  ( -4.000000000000000000, 0.000000000000000000, 1004.999999999999886 ) ) ;
#157 = CIRCLE ( 'NONE', #72, 4.000000000000000000 ) ;
#158 = CIRCLE ( 'NONE', #265, 4.200000000000000178 ) ;
#159 = VECTOR ( 'NONE', #278, 1000.000000000000000 ) ;
#160 = APPROVAL_PERSON_ORGANIZATION ( #48, #293, #239 ) ;
#161 = FACE_OUTER_BOUND ( 'NONE', #166, .T. ) ;
#162 = DIRECTION ( 'NONE',  ( 0.000000000000000000, 0.000000000000000000, 1.000000000000000000 ) ) ;
#163 = CARTESIAN_POINT ( 'NONE',  ( 0.000000000000000000, 0.000000000000000000, 0.000000000000000000 ) ) ;
#164 = CARTESIAN_POINT ( 'NONE',  ( -4.000000000000000000, 0.000000000000000000, 5.199999999999982414 ) ) ;
#165 = CARTESIAN_POINT ( 'NONE',  ( 0.000000000000000000, 0.000000000000000000, 5.000000000000000000 ) ) ;
#166 = EDGE_LOOP ( 'NONE', ( #107, #9 ) ) ;
#167 = APPROVAL ( #143, 'NEURÈENÝ' ) ;
#168 = APPLICATION_PROTOCOL_DEFINITION ( 'international standard', 'config_control_design', 1994, #56 ) ;
#169 = ORIENTED_EDGE ( 'NONE', *, *, #68, .F. ) ;
#170 = DIRECTION ( 'NONE',  ( 1.000000000000000000, 0.000000000000000000, 0.000000000000000000 ) ) ;
#171 = CIRCLE ( 'NONE', #225, 4.200000000000000178 ) ;
#172 = ORIENTED_EDGE ( 'NONE', *, *, #141, .F. ) ;
#173 = APPROVAL_ROLE ( '' ) ;
#174 = DIRECTION ( 'NONE',  ( -0.000000000000000000, -0.000000000000000000, -1.000000000000000000 ) ) ;
#175 = ADVANCED_FACE ( 'NONE', ( #246 ), #304, .F. ) ;
#176 = AXIS2_PLACEMENT_3D ( 'NONE', #61, #86, #223 ) ;
#177 = CARTESIAN_POINT ( 'NONE',  ( 0.000000000000000000, 0.000000000000000000, 5.199999999999982414 ) ) ;
#178 = AXIS2_PLACEMENT_3D ( 'NONE', #70, #275, #137 ) ;
#179 = CARTESIAN_POINT ( 'NONE',  ( 7.000000000000000000, 8.572527594031473190E-16, 0.000000000000000000 ) ) ;
#180 = CYLINDRICAL_SURFACE ( 'NONE', #35, 4.000000000000000000 ) ;
#181 = DIRECTION ( 'NONE',  ( 0.000000000000000000, -1.000000000000000000, 0.000000000000000000 ) ) ;
#182 = APPLICATION_PROTOCOL_DEFINITION ( 'international standard', 'config_control_design', 1994, #85 ) ;
#183 = CARTESIAN_POINT ( 'NONE',  ( -4.200000000000000178, 5.143516556418882928E-16, 5.199999999999982414 ) ) ;
#184 = SECURITY_CLASSIFICATION ( '', '', #283 ) ;
#185 = LINE ( 'NONE', #232, #159 ) ;
#186 = CARTESIAN_POINT ( 'NONE',  ( 0.000000000000000000, 0.000000000000000000, 5.000000000000000000 ) ) ;
#187 = DATE_AND_TIME ( #236, #197 ) ;
#188 = AXIS2_PLACEMENT_3D ( 'NONE', #297, #41, #153 ) ;
#189 = CALENDAR_DATE ( 2022, 20, 6 ) ;
#190 = EDGE_LOOP ( 'NONE', ( #101, #260 ) ) ;
#191 = ADVANCED_FACE ( 'NONE', ( #201 ), #45, .T. ) ;
#192 = VERTEX_POINT ( 'NONE', #229 ) ;
#193 = ORIENTED_EDGE ( 'NONE', *, *, #271, .F. ) ;
#194 = COORDINATED_UNIVERSAL_TIME_OFFSET ( 1, 0, .AHEAD. ) ;
#195 = EDGE_CURVE ( 'NONE', #282, #78, #171, .T. ) ;
#196 = TOROIDAL_SURFACE ( 'NONE', #130, 4.200000000000000178, 0.2000000000000000111 ) ;
#197 = LOCAL_TIME ( 11, 47, 50.00000000000000000, #259 ) ;
#198 = FACE_OUTER_BOUND ( 'NONE', #258, .T. ) ;
#199 = LINE ( 'NONE', #81, #134 ) ;
#200 = AXIS2_PLACEMENT_3D ( 'NONE', #250, #44, #22 ) ;
#201 = FACE_OUTER_BOUND ( 'NONE', #30, .T. ) ;
#202 = FACE_OUTER_BOUND ( 'NONE', #73, .T. ) ;
#203 = AXIS2_PLACEMENT_3D ( 'NONE', #244, #131, #270 ) ;
#204 = LOCAL_TIME ( 11, 47, 50.00000000000000000, #118 ) ;
#205 = DIRECTION ( 'NONE',  ( 1.000000000000000000, 0.000000000000000000, 0.000000000000000000 ) ) ;
#206 = DIRECTION ( 'NONE',  ( 0.000000000000000000, 0.000000000000000000, -1.000000000000000000 ) ) ;
#207 = DIRECTION ( 'NONE',  ( 1.000000000000000000, 0.000000000000000000, 0.000000000000000000 ) ) ;
#208 = VECTOR ( 'NONE', #15, 1000.000000000000000 ) ;
#209 = CC_DESIGN_APPROVAL ( #167, ( #220 ) ) ;
#210 = CARTESIAN_POINT ( 'NONE',  ( 0.000000000000000000, 0.000000000000000000, 0.000000000000000000 ) ) ;
#211 = APPROVAL_ROLE ( '' ) ;
#212 = AXIS2_PLACEMENT_3D ( 'NONE', #186, #89, #207 ) ;
#213 = ORIENTED_EDGE ( 'NONE', *, *, #243, .F. ) ;
#214 = EDGE_CURVE ( 'NONE', #242, #282, #93, .T. ) ;
#215 = PERSON_AND_ORGANIZATION ( #150, #233 ) ;
#216 = ORIENTED_EDGE ( 'NONE', *, *, #214, .F. ) ;
#217 = CC_DESIGN_PERSON_AND_ORGANIZATION_ASSIGNMENT ( #215, #8, ( #184 ) ) ;
#218 = CIRCLE ( 'NONE', #200, 4.000000000000000000 ) ;
#219 = ORIENTED_EDGE ( 'NONE', *, *, #305, .F. ) ;
#220 = PRODUCT_DEFINITION ( 'NEZNÁMÝ', '', #299, #116 ) ;
#221 = DIRECTION ( 'NONE',  ( 1.000000000000000000, 0.000000000000000000, -0.000000000000000000 ) ) ;
#222 = MANIFOLD_SOLID_BREP ( 'Zaoblit1', #272 ) ;
#223 = DIRECTION ( 'NONE',  ( 1.000000000000000000, 0.000000000000000000, 0.000000000000000000 ) ) ;
#224 = CIRCLE ( 'NONE', #212, 7.000000000000000000 ) ;
#225 = AXIS2_PLACEMENT_3D ( 'NONE', #301, #113, #205 ) ;
#226 = DIRECTION ( 'NONE',  ( -1.000000000000000000, 0.000000000000000000, 0.000000000000000000 ) ) ;
#227 = CARTESIAN_POINT ( 'NONE',  ( 4.000000000000000000, 4.898587196589412829E-16, 1004.999999999999886 ) ) ;
#228 = CARTESIAN_POINT ( 'NONE',  ( 0.000000000000000000, 0.000000000000000000, 5.199999999999982414 ) ) ;
#229 = CARTESIAN_POINT ( 'NONE',  ( 4.000000000000000000, 4.898587196589412829E-16, 5.199999999999982414 ) ) ;
#230 = DIRECTION ( 'NONE',  ( -0.000000000000000000, -0.000000000000000000, -1.000000000000000000 ) ) ;
#231 = EDGE_CURVE ( 'NONE', #192, #78, #289, .T. ) ;
#232 = CARTESIAN_POINT ( 'NONE',  ( -4.000000000000000000, 0.000000000000000000, 1004.999999999999886 ) ) ;
#233 = ORGANIZATION ( 'NEURÈENÝ', 'NEURÈENÝ', '' ) ;
#234 =( LENGTH_UNIT ( ) NAMED_UNIT ( * ) SI_UNIT ( .MILLI., .METRE. ) );
#235 = AXIS2_PLACEMENT_3D ( 'NONE', #20, #181, #206 ) ;
#236 = CALENDAR_DATE ( 2022, 20, 6 ) ;
#237 = VERTEX_POINT ( 'NONE', #279 ) ;
#238 = ORIENTED_EDGE ( 'NONE', *, *, #231, .T. ) ;
#239 = APPROVAL_ROLE ( '' ) ;
#240 = ORIENTED_EDGE ( 'NONE', *, *, #133, .F. ) ;
#241 = DIRECTION ( 'NONE',  ( 0.000000000000000000, 0.000000000000000000, 1.000000000000000000 ) ) ;
#242 = VERTEX_POINT ( 'NONE', #164 ) ;
#243 = EDGE_CURVE ( 'NONE', #7, #242, #185, .T. ) ;
#244 = CARTESIAN_POINT ( 'NONE',  ( 0.000000000000000000, 0.000000000000000000, 5.000000000000000000 ) ) ;
#245 = CARTESIAN_POINT ( 'NONE',  ( 0.000000000000000000, 0.000000000000000000, 5.000000000000000000 ) ) ;
#246 = FACE_OUTER_BOUND ( 'NONE', #97, .T. ) ;
#247 = CARTESIAN_POINT ( 'NONE',  ( 0.000000000000000000, 0.000000000000000000, 1004.999999999999886 ) ) ;
#248 = CARTESIAN_POINT ( 'NONE',  ( 7.000000000000000000, 8.572527594031473190E-16, 5.000000000000000000 ) ) ;
#249 =( NAMED_UNIT ( * ) SI_UNIT ( $, .STERADIAN. ) SOLID_ANGLE_UNIT ( ) );
#250 = CARTESIAN_POINT ( 'NONE',  ( 0.000000000000000000, 0.000000000000000000, 5.199999999999982414 ) ) ;
#251 = AXIS2_PLACEMENT_3D ( 'NONE', #83, #154, #292 ) ;
#252 = DIRECTION ( 'NONE',  ( 1.224646799147353207E-16, 1.000000000000000000, -0.000000000000000000 ) ) ;
#253 = DIRECTION ( 'NONE',  ( 1.000000000000000000, 0.000000000000000000, 0.000000000000000000 ) ) ;
#254 = PRODUCT_DEFINITION_SHAPE ( 'NONE', 'NONE',  #220 ) ;
#255 = PERSON_AND_ORGANIZATION_ROLE ( 'creator' ) ;
#256 = ORIENTED_EDGE ( 'NONE', *, *, #47, .F. ) ;
#257 = PERSON_AND_ORGANIZATION_ROLE ( 'design_owner' ) ;
#258 = EDGE_LOOP ( 'NONE', ( #126, #122 ) ) ;
#259 = COORDINATED_UNIVERSAL_TIME_OFFSET ( 1, 0, .AHEAD. ) ;
#260 = ORIENTED_EDGE ( 'NONE', *, *, #195, .T. ) ;
#261 = AXIS2_PLACEMENT_3D ( 'NONE', #183, #252, #136 ) ;
#262 = ORIENTED_EDGE ( 'NONE', *, *, #67, .F. ) ;
#263 = DIRECTION ( 'NONE',  ( 1.000000000000000000, 0.000000000000000000, 0.000000000000000000 ) ) ;
#264 = AXIS2_PLACEMENT_3D ( 'NONE', #245, #296, #127 ) ;
#265 = AXIS2_PLACEMENT_3D ( 'NONE', #12, #174, #263 ) ;
#266 = CIRCLE ( 'NONE', #82, 4.000000000000000000 ) ;
#267 = DIRECTION ( 'NONE',  ( 0.000000000000000000, 0.000000000000000000, 1.000000000000000000 ) ) ;
#268 = ADVANCED_FACE ( 'NONE', ( #91 ), #196, .F. ) ;
#269 = DIRECTION ( 'NONE',  ( 1.000000000000000000, 0.000000000000000000, 0.000000000000000000 ) ) ;
#270 = DIRECTION ( 'NONE',  ( 1.000000000000000000, 0.000000000000000000, 0.000000000000000000 ) ) ;
#271 = EDGE_CURVE ( 'NONE', #242, #192, #218, .T. ) ;
#272 = CLOSED_SHELL ( 'NONE', ( #175, #38, #90, #191, #111, #285, #23, #94, #268 ) ) ;
#273 = CYLINDRICAL_SURFACE ( 'NONE', #264, 7.000000000000000000 ) ;
#274 = CC_DESIGN_DATE_AND_TIME_ASSIGNMENT ( #286, #50, ( #220 ) ) ;
#275 = DIRECTION ( 'NONE',  ( 0.000000000000000000, 0.000000000000000000, 1.000000000000000000 ) ) ;
#276 = CC_DESIGN_PERSON_AND_ORGANIZATION_ASSIGNMENT ( #2, #257, ( #307 ) ) ;
#277 = DIRECTION ( 'NONE',  ( 0.000000000000000000, 0.000000000000000000, 1.000000000000000000 ) ) ;
#278 = DIRECTION ( 'NONE',  ( -0.000000000000000000, -0.000000000000000000, -1.000000000000000000 ) ) ;
#279 = CARTESIAN_POINT ( 'NONE',  ( -7.000000000000000000, 0.000000000000000000, 0.000000000000000000 ) ) ;
#280 = APPROVAL_STATUS ( 'not_yet_approved' ) ;
#281 = ORIENTED_EDGE ( 'NONE', *, *, #155, .T. ) ;
#282 = VERTEX_POINT ( 'NONE', #24 ) ;
#283 = SECURITY_CLASSIFICATION_LEVEL ( 'unclassified' ) ;
#284 = ORIENTED_EDGE ( 'NONE', *, *, #141, .T. ) ;
#285 = ADVANCED_FACE ( 'NONE', ( #114 ), #69, .F. ) ;
#286 = DATE_AND_TIME ( #98, #87 ) ;
#287 = ORIENTED_EDGE ( 'NONE', *, *, #106, .T. ) ;
#288 = CIRCLE ( 'NONE', #176, 7.000000000000000000 ) ;
#289 = CIRCLE ( 'NONE', #235, 0.1999999999999996503 ) ;
#290 = APPROVAL_PERSON_ORGANIZATION ( #1, #167, #173 ) ;
#291 = PLANE ( 'NONE',  #251 ) ;
#292 = DIRECTION ( 'NONE',  ( 1.000000000000000000, 0.000000000000000000, -0.000000000000000000 ) ) ;
#293 = APPROVAL ( #31, 'NEURÈENÝ' ) ;
#294 = CARTESIAN_POINT ( 'NONE',  ( 7.000000000000000000, 8.572527594031473190E-16, 5.000000000000000000 ) ) ;
#295 = EDGE_CURVE ( 'NONE', #237, #54, #25, .T. ) ;
#296 = DIRECTION ( 'NONE',  ( -0.000000000000000000, -0.000000000000000000, -1.000000000000000000 ) ) ;
#297 = CARTESIAN_POINT ( 'NONE',  ( 0.000000000000000000, 0.000000000000000000, 1004.999999999999886 ) ) ;
#298 =( NAMED_UNIT ( * ) PLANE_ANGLE_UNIT ( ) SI_UNIT ( $, .RADIAN. ) );
#299 = PRODUCT_DEFINITION_FORMATION_WITH_SPECIFIED_SOURCE ( 'LIBOVOLNÝ', '', #307, .NOT_KNOWN. ) ;
#300 = EDGE_CURVE ( 'NONE', #32, #140, #224, .T. ) ;
#301 = CARTESIAN_POINT ( 'NONE',  ( 0.000000000000000000, 0.000000000000000000, 5.000000000000000000 ) ) ;
#302 = PRODUCT_RELATED_PRODUCT_CATEGORY ( 'detail', '', ( #307 ) ) ;
#303 = CARTESIAN_POINT ( 'NONE',  ( 0.000000000000000000, 0.000000000000000000, 1004.999999999999886 ) ) ;
#304 = TOROIDAL_SURFACE ( 'NONE', #178, 4.200000000000000178, 0.2000000000000000111 ) ;
#305 = EDGE_CURVE ( 'NONE', #7, #112, #266, .T. ) ;
#306 = DIRECTION ( 'NONE',  ( 1.000000000000000000, 0.000000000000000000, 0.000000000000000000 ) ) ;
#307 = PRODUCT ( 'e0d0', 'e0d0', '', ( #53 ) ) ;
ENDSEC;
END-ISO-10303-21;
