ISO-10303-21;
HEADER;
FILE_DESCRIPTION (( 'STEP AP203' ),
    '1' );
FILE_NAME ('46cf.STEP',
    '2022-06-20T10:26:39',
    ( '' ),
    ( '' ),
    'SwSTEP 2.0',
    'SolidWorks 2019',
    '' );
FILE_SCHEMA (( 'CONFIG_CONTROL_DESIGN' ));
ENDSEC;

DATA;
#1 = ORIENTED_EDGE ( 'NONE', *, *, #122, .F. ) ;
#2 = CIRCLE ( 'NONE', #90, 0.1999999999999999833 ) ;
#3 = EDGE_CURVE ( 'NONE', #258, #75, #29, .T. ) ;
#4 = LOCAL_TIME ( 12, 26, 39.00000000000000000, #169 ) ;
#5 = ORIENTED_EDGE ( 'NONE', *, *, #66, .T. ) ;
#6 = PERSON_AND_ORGANIZATION_ROLE ( 'design_supplier' ) ;
#7 = ORIENTED_EDGE ( 'NONE', *, *, #157, .T. ) ;
#8 = APPROVAL ( #254, 'NEURÈENÝ' ) ;
#9 = FACE_OUTER_BOUND ( 'NONE', #79, .T. ) ;
#10 = PERSON_AND_ORGANIZATION ( #285, #61 ) ;
#11 = DIRECTION ( 'NONE',  ( 0.000000000000000000, 0.000000000000000000, 1.000000000000000000 ) ) ;
#12 = APPROVAL_PERSON_ORGANIZATION ( #304, #8, #245 ) ;
#13 = CARTESIAN_POINT ( 'NONE',  ( 1.250000000000000000, 1.530808498934191571E-16, 0.000000000000000000 ) ) ;
#14 = DIRECTION ( 'NONE',  ( -0.000000000000000000, -0.000000000000000000, -1.000000000000000000 ) ) ;
#15 = DIRECTION ( 'NONE',  ( -0.000000000000000000, -0.000000000000000000, -1.000000000000000000 ) ) ;
#16 = CARTESIAN_POINT ( 'NONE',  ( 1.250000000000000000, 1.530808498934191571E-16, 1.199999999999999956 ) ) ;
#17 = DIRECTION ( 'NONE',  ( 1.000000000000000000, 0.000000000000000000, 0.000000000000000000 ) ) ;
#18 = VECTOR ( 'NONE', #14, 1000.000000000000000 ) ;
#19 = CARTESIAN_POINT ( 'NONE',  ( -1.250000000000000000, 0.000000000000000000, 1.199999999999999956 ) ) ;
#20 = CC_DESIGN_PERSON_AND_ORGANIZATION_ASSIGNMENT ( #290, #77, ( #137 ) ) ;
#21 = CARTESIAN_POINT ( 'NONE',  ( 0.000000000000000000, 0.000000000000000000, 1.199999999999999956 ) ) ;
#22 = APPLICATION_CONTEXT ( 'configuration controlled 3d designs of mechanical parts and assemblies' ) ;
#23 = EDGE_CURVE ( 'NONE', #240, #139, #197, .T. ) ;
#24 = PRODUCT_DEFINITION_SHAPE ( 'NONE', 'NONE',  #195 ) ;
#25 = ORIENTED_EDGE ( 'NONE', *, *, #66, .F. ) ;
#26 = LOCAL_TIME ( 12, 26, 39.00000000000000000, #225 ) ;
#27 = VERTEX_POINT ( 'NONE', #237 ) ;
#28 = ORIENTED_EDGE ( 'NONE', *, *, #3, .T. ) ;
#29 = CIRCLE ( 'NONE', #279, 0.5000000000000000000 ) ;
#30 = ORIENTED_EDGE ( 'NONE', *, *, #157, .F. ) ;
#31 = ADVANCED_FACE ( 'NONE', ( #9 ), #236, .T. ) ;
#32 = DIRECTION ( 'NONE',  ( -0.000000000000000000, -0.000000000000000000, -1.000000000000000000 ) ) ;
#33 = CARTESIAN_POINT ( 'NONE',  ( 0.5000000000000000000, 6.123233995736766036E-17, 101.2000000000000171 ) ) ;
#34 = FACE_OUTER_BOUND ( 'NONE', #93, .T. ) ;
#35 = LINE ( 'NONE', #196, #289 ) ;
#36 = DIRECTION ( 'NONE',  ( 1.000000000000000000, 0.000000000000000000, 0.000000000000000000 ) ) ;
#37 = CC_DESIGN_PERSON_AND_ORGANIZATION_ASSIGNMENT ( #241, #297, ( #220 ) ) ;
#38 = PLANE ( 'NONE',  #70 ) ;
#39 = CARTESIAN_POINT ( 'NONE',  ( 0.000000000000000000, 0.000000000000000000, 101.2000000000000171 ) ) ;
#40 = AXIS2_PLACEMENT_3D ( 'NONE', #84, #291, #274 ) ;
#41 = APPROVAL_ROLE ( '' ) ;
#42 = CARTESIAN_POINT ( 'NONE',  ( -0.6999999999999999556, 8.572527594031473190E-17, 1.199999999999999289 ) ) ;
#43 = AXIS2_PLACEMENT_3D ( 'NONE', #21, #278, #155 ) ;
#44 = FACE_OUTER_BOUND ( 'NONE', #235, .T. ) ;
#45 = EDGE_CURVE ( 'NONE', #166, #75, #266, .T. ) ;
#46 = CALENDAR_DATE ( 2022, 20, 6 ) ;
#47 = EDGE_CURVE ( 'NONE', #166, #209, #261, .T. ) ;
#48 = APPROVAL_PERSON_ORGANIZATION ( #94, #142, #91 ) ;
#49 = PERSON_AND_ORGANIZATION_ROLE ( 'creator' ) ;
#50 = AXIS2_PLACEMENT_3D ( 'NONE', #97, #11, #81 ) ;
#51 = ORIENTED_EDGE ( 'NONE', *, *, #223, .T. ) ;
#52 = CIRCLE ( 'NONE', #224, 1.250000000000000000 ) ;
#53 = APPROVAL ( #244, 'NEURÈENÝ' ) ;
#54 = APPROVAL_PERSON_ORGANIZATION ( #273, #53, #41 ) ;
#55 = EDGE_LOOP ( 'NONE', ( #25, #30 ) ) ;
#56 = EDGE_LOOP ( 'NONE', ( #96, #231, #115, #284 ) ) ;
#57 = FACE_OUTER_BOUND ( 'NONE', #272, .T. ) ;
#58 = FACE_BOUND ( 'NONE', #141, .T. ) ;
#59 = ADVANCED_FACE ( 'NONE', ( #242 ), #76, .T. ) ;
#60 = CARTESIAN_POINT ( 'NONE',  ( 0.000000000000000000, 0.000000000000000000, 1.199999999999999956 ) ) ;
#61 = ORGANIZATION ( 'NEURÈENÝ', 'NEURÈENÝ', '' ) ;
#62 = DIRECTION ( 'NONE',  ( 0.000000000000000000, 0.000000000000000000, 1.000000000000000000 ) ) ;
#63 = DIRECTION ( 'NONE',  ( 1.000000000000000000, 0.000000000000000000, 0.000000000000000000 ) ) ;
#64 = FACE_OUTER_BOUND ( 'NONE', #55, .T. ) ;
#65 = CARTESIAN_POINT ( 'NONE',  ( 0.000000000000000000, 0.000000000000000000, 1.199999999999999956 ) ) ;
#66 = EDGE_CURVE ( 'NONE', #260, #120, #167, .T. ) ;
#67 = CYLINDRICAL_SURFACE ( 'NONE', #43, 1.250000000000000000 ) ;
#68 = DIRECTION ( 'NONE',  ( -0.000000000000000000, -0.000000000000000000, -1.000000000000000000 ) ) ;
#69 = ADVANCED_FACE ( 'NONE', ( #34 ), #194, .T. ) ;
#70 = AXIS2_PLACEMENT_3D ( 'NONE', #217, #103, #153 ) ;
#71 = ORIENTED_EDGE ( 'NONE', *, *, #47, .F. ) ;
#72 = ADVANCED_FACE ( 'NONE', ( #58, #57 ), #216, .T. ) ;
#73 =( GEOMETRIC_REPRESENTATION_CONTEXT ( 3 ) GLOBAL_UNCERTAINTY_ASSIGNED_CONTEXT ( ( #111 ) ) GLOBAL_UNIT_ASSIGNED_CONTEXT ( ( #109, #100, #299 ) ) REPRESENTATION_CONTEXT ( 'NONE', 'WORKASPACE' ) );
#74 = EDGE_LOOP ( 'NONE', ( #286, #230 ) ) ;
#75 = VERTEX_POINT ( 'NONE', #121 ) ;
#76 = PLANE ( 'NONE',  #307 ) ;
#77 = PERSON_AND_ORGANIZATION_ROLE ( 'classification_officer' ) ;
#78 = ORIENTED_EDGE ( 'NONE', *, *, #165, .F. ) ;
#79 = EDGE_LOOP ( 'NONE', ( #71, #212, #210, #233 ) ) ;
#80 = CIRCLE ( 'NONE', #105, 0.5000000000000000000 ) ;
#81 = DIRECTION ( 'NONE',  ( 1.000000000000000000, 0.000000000000000000, -0.000000000000000000 ) ) ;
#82 = CARTESIAN_POINT ( 'NONE',  ( 0.000000000000000000, 0.000000000000000000, 0.000000000000000000 ) ) ;
#83 = PERSON_AND_ORGANIZATION_ROLE ( 'creator' ) ;
#84 = CARTESIAN_POINT ( 'NONE',  ( 0.000000000000000000, 0.000000000000000000, 0.000000000000000000 ) ) ;
#85 = LINE ( 'NONE', #181, #131 ) ;
#86 = CALENDAR_DATE ( 2022, 20, 6 ) ;
#87 = DIRECTION ( 'NONE',  ( 1.000000000000000000, 0.000000000000000000, 0.000000000000000000 ) ) ;
#88 = AXIS2_PLACEMENT_3D ( 'NONE', #123, #148, #36 ) ;
#89 = AXIS2_PLACEMENT_3D ( 'NONE', #298, #15, #128 ) ;
#90 = AXIS2_PLACEMENT_3D ( 'NONE', #98, #193, #174 ) ;
#91 = APPROVAL_ROLE ( '' ) ;
#92 = EDGE_CURVE ( 'NONE', #258, #191, #2, .T. ) ;
#93 = EDGE_LOOP ( 'NONE', ( #262, #282, #7, #214 ) ) ;
#94 = PERSON_AND_ORGANIZATION ( #285, #61 ) ;
#95 = CIRCLE ( 'NONE', #173, 1.250000000000000000 ) ;
#96 = ORIENTED_EDGE ( 'NONE', *, *, #3, .F. ) ;
#97 = CARTESIAN_POINT ( 'NONE',  ( 0.000000000000000000, 0.000000000000000000, 1.199999999999999956 ) ) ;
#98 = CARTESIAN_POINT ( 'NONE',  ( -0.6999999999999999556, 8.572527594031471957E-17, 1.399999999999998579 ) ) ;
#99 = EDGE_CURVE ( 'NONE', #27, #191, #168, .T. ) ;
#100 =( NAMED_UNIT ( * ) PLANE_ANGLE_UNIT ( ) SI_UNIT ( $, .RADIAN. ) );
#101 = ORIENTED_EDGE ( 'NONE', *, *, #257, .T. ) ;
#102 = CARTESIAN_POINT ( 'NONE',  ( 0.000000000000000000, 0.000000000000000000, 1.199999999999999956 ) ) ;
#103 = DIRECTION ( 'NONE',  ( 0.000000000000000000, 0.000000000000000000, 1.000000000000000000 ) ) ;
#104 = MANIFOLD_SOLID_BREP ( 'Zaoblit1', #294 ) ;
#105 = AXIS2_PLACEMENT_3D ( 'NONE', #218, #178, #63 ) ;
#106 = ORIENTED_EDGE ( 'NONE', *, *, #23, .T. ) ;
#107 = CARTESIAN_POINT ( 'NONE',  ( 0.000000000000000000, 0.000000000000000000, 1.399999999999998579 ) ) ;
#108 = CARTESIAN_POINT ( 'NONE',  ( -1.250000000000000000, 0.000000000000000000, 1.199999999999999956 ) ) ;
#109 =( LENGTH_UNIT ( ) NAMED_UNIT ( * ) SI_UNIT ( .MILLI., .METRE. ) );
#110 = DIRECTION ( 'NONE',  ( 0.000000000000000000, 0.000000000000000000, 1.000000000000000000 ) ) ;
#111 = UNCERTAINTY_MEASURE_WITH_UNIT (LENGTH_MEASURE( 1.000000000000000082E-05 ), #109, 'distance_accuracy_value', 'NONE');
#112 = LOCAL_TIME ( 12, 26, 39.00000000000000000, #138 ) ;
#113 = DATE_AND_TIME ( #228, #112 ) ;
#114 = ADVANCED_FACE ( 'NONE', ( #124 ), #263, .F. ) ;
#115 = ORIENTED_EDGE ( 'NONE', *, *, #99, .F. ) ;
#116 = CIRCLE ( 'NONE', #156, 0.6999999999999999556 ) ;
#117 = ORIENTED_EDGE ( 'NONE', *, *, #200, .T. ) ;
#118 = ORIENTED_EDGE ( 'NONE', *, *, #99, .T. ) ;
#119 = CC_DESIGN_APPROVAL ( #142, ( #215 ) ) ;
#120 = VERTEX_POINT ( 'NONE', #13 ) ;
#121 = CARTESIAN_POINT ( 'NONE',  ( 0.5000000000000000000, 6.123233995736766036E-17, 1.399999999999998579 ) ) ;
#122 = EDGE_CURVE ( 'NONE', #209, #166, #80, .T. ) ;
#123 = CARTESIAN_POINT ( 'NONE',  ( 0.000000000000000000, 0.000000000000000000, 1.399999999999998579 ) ) ;
#124 = FACE_OUTER_BOUND ( 'NONE', #56, .T. ) ;
#125 = DATE_AND_TIME ( #145, #4 ) ;
#126 = DIRECTION ( 'NONE',  ( 1.000000000000000000, 0.000000000000000000, 0.000000000000000000 ) ) ;
#127 = DIRECTION ( 'NONE',  ( 0.000000000000000000, -1.000000000000000000, 0.000000000000000000 ) ) ;
#128 = DIRECTION ( 'NONE',  ( -1.000000000000000000, 0.000000000000000000, 0.000000000000000000 ) ) ;
#129 = AXIS2_PLACEMENT_3D ( 'NONE', #146, #269, #221 ) ;
#130 = COORDINATED_UNIVERSAL_TIME_OFFSET ( 1, 0, .AHEAD. ) ;
#131 = VECTOR ( 'NONE', #159, 1000.000000000000000 ) ;
#132 = APPLICATION_PROTOCOL_DEFINITION ( 'international standard', 'config_control_design', 1994, #259 ) ;
#133 = CARTESIAN_POINT ( 'NONE',  ( 0.000000000000000000, 0.000000000000000000, 101.2000000000000171 ) ) ;
#134 = CC_DESIGN_PERSON_AND_ORGANIZATION_ASSIGNMENT ( #164, #49, ( #215 ) ) ;
#135 = CARTESIAN_POINT ( 'NONE',  ( -0.5000000000000000000, 0.000000000000000000, 101.2000000000000171 ) ) ;
#136 = DATE_AND_TIME ( #161, #26 ) ;
#137 = SECURITY_CLASSIFICATION ( '', '', #268 ) ;
#138 = COORDINATED_UNIVERSAL_TIME_OFFSET ( 1, 0, .AHEAD. ) ;
#139 = VERTEX_POINT ( 'NONE', #108 ) ;
#140 = CC_DESIGN_APPROVAL ( #53, ( #195 ) ) ;
#141 = EDGE_LOOP ( 'NONE', ( #118, #117 ) ) ;
#142 = APPROVAL ( #232, 'NEURÈENÝ' ) ;
#143 = EDGE_LOOP ( 'NONE', ( #208, #1, #207, #28 ) ) ;
#144 = ADVANCED_FACE ( 'NONE', ( #202 ), #248, .T. ) ;
#145 = CALENDAR_DATE ( 2022, 20, 6 ) ;
#146 = CARTESIAN_POINT ( 'NONE',  ( 0.000000000000000000, 0.000000000000000000, 101.2000000000000171 ) ) ;
#147 = DIRECTION ( 'NONE',  ( 1.000000000000000000, 0.000000000000000000, 0.000000000000000000 ) ) ;
#148 = DIRECTION ( 'NONE',  ( 0.000000000000000000, 0.000000000000000000, 1.000000000000000000 ) ) ;
#149 = DIRECTION ( 'NONE',  ( -0.000000000000000000, -0.000000000000000000, -1.000000000000000000 ) ) ;
#150 = DESIGN_CONTEXT ( 'detailed design', #22, 'design' ) ;
#151 = LINE ( 'NONE', #19, #18 ) ;
#152 = CARTESIAN_POINT ( 'NONE',  ( 0.000000000000000000, 0.000000000000000000, 1.399999999999998579 ) ) ;
#153 = DIRECTION ( 'NONE',  ( 1.000000000000000000, 0.000000000000000000, -0.000000000000000000 ) ) ;
#154 = LOCAL_TIME ( 12, 26, 39.00000000000000000, #130 ) ;
#155 = DIRECTION ( 'NONE',  ( -1.000000000000000000, 0.000000000000000000, 0.000000000000000000 ) ) ;
#156 = AXIS2_PLACEMENT_3D ( 'NONE', #184, #68, #253 ) ;
#157 = EDGE_CURVE ( 'NONE', #120, #260, #52, .T. ) ;
#158 = APPROVAL_DATE_TIME ( #277, #53 ) ;
#159 = DIRECTION ( 'NONE',  ( -0.000000000000000000, -0.000000000000000000, -1.000000000000000000 ) ) ;
#160 = COORDINATED_UNIVERSAL_TIME_OFFSET ( 1, 0, .AHEAD. ) ;
#161 = CALENDAR_DATE ( 2022, 20, 6 ) ;
#162 = CC_DESIGN_DATE_AND_TIME_ASSIGNMENT ( #256, #247, ( #195 ) ) ;
#163 = AXIS2_PLACEMENT_3D ( 'NONE', #107, #301, #271 ) ;
#164 = PERSON_AND_ORGANIZATION ( #285, #61 ) ;
#165 = EDGE_CURVE ( 'NONE', #240, #120, #85, .T. ) ;
#166 = VERTEX_POINT ( 'NONE', #251 ) ;
#167 = CIRCLE ( 'NONE', #40, 1.250000000000000000 ) ;
#168 = CIRCLE ( 'NONE', #246, 0.6999999999999999556 ) ;
#169 = COORDINATED_UNIVERSAL_TIME_OFFSET ( 1, 0, .AHEAD. ) ;
#170 = ORIENTED_EDGE ( 'NONE', *, *, #255, .F. ) ;
#171 = ADVANCED_FACE ( 'NONE', ( #275 ), #67, .T. ) ;
#172 = CIRCLE ( 'NONE', #206, 0.5000000000000000000 ) ;
#173 = AXIS2_PLACEMENT_3D ( 'NONE', #102, #249, #276 ) ;
#174 = DIRECTION ( 'NONE',  ( -1.000000000000000000, 1.224646799147352714E-16, 0.000000000000000000 ) ) ;
#175 = DIRECTION ( 'NONE',  ( 0.000000000000000000, 0.000000000000000000, 1.000000000000000000 ) ) ;
#176 = DIRECTION ( 'NONE',  ( 1.000000000000000000, 0.000000000000000000, 0.000000000000000000 ) ) ;
#177 = LOCAL_TIME ( 12, 26, 39.00000000000000000, #160 ) ;
#178 = DIRECTION ( 'NONE',  ( 0.000000000000000000, 0.000000000000000000, 1.000000000000000000 ) ) ;
#179 = APPLICATION_PROTOCOL_DEFINITION ( 'international standard', 'config_control_design', 1994, #22 ) ;
#180 = DIRECTION ( 'NONE',  ( 1.000000000000000000, 0.000000000000000000, -0.000000000000000000 ) ) ;
#181 = CARTESIAN_POINT ( 'NONE',  ( 1.250000000000000000, 1.530808498934191571E-16, 1.199999999999999956 ) ) ;
#182 = CC_DESIGN_PERSON_AND_ORGANIZATION_ASSIGNMENT ( #305, #83, ( #195 ) ) ;
#183 = AXIS2_PLACEMENT_3D ( 'NONE', #133, #201, #226 ) ;
#184 = CARTESIAN_POINT ( 'NONE',  ( 0.000000000000000000, 0.000000000000000000, 1.199999999999999956 ) ) ;
#185 = SHAPE_DEFINITION_REPRESENTATION ( #24, #264 ) ;
#186 = CC_DESIGN_SECURITY_CLASSIFICATION ( #137, ( #215 ) ) ;
#187 = ORIENTED_EDGE ( 'NONE', *, *, #190, .F. ) ;
#188 = ORIENTED_EDGE ( 'NONE', *, *, #255, .T. ) ;
#189 = ORIENTED_EDGE ( 'NONE', *, *, #200, .F. ) ;
#190 = EDGE_CURVE ( 'NONE', #75, #258, #172, .T. ) ;
#191 = VERTEX_POINT ( 'NONE', #42 ) ;
#192 = DIRECTION ( 'NONE',  ( -1.000000000000000000, 0.000000000000000000, 0.000000000000000000 ) ) ;
#193 = DIRECTION ( 'NONE',  ( 1.224646799147353207E-16, 1.000000000000000000, -0.000000000000000000 ) ) ;
#194 = CYLINDRICAL_SURFACE ( 'NONE', #213, 1.250000000000000000 ) ;
#195 = PRODUCT_DEFINITION ( 'NEZNÁMÝ', '', #215, #150 ) ;
#196 = CARTESIAN_POINT ( 'NONE',  ( -0.5000000000000000000, 0.000000000000000000, 101.2000000000000171 ) ) ;
#197 = CIRCLE ( 'NONE', #219, 1.250000000000000000 ) ;
#198 = CARTESIAN_POINT ( 'NONE',  ( -1.250000000000000000, 0.000000000000000000, 0.000000000000000000 ) ) ;
#199 = DIRECTION ( 'NONE',  ( 0.000000000000000000, 0.000000000000000000, 1.000000000000000000 ) ) ;
#200 = EDGE_CURVE ( 'NONE', #191, #27, #116, .T. ) ;
#201 = DIRECTION ( 'NONE',  ( -0.000000000000000000, -0.000000000000000000, -1.000000000000000000 ) ) ;
#202 = FACE_OUTER_BOUND ( 'NONE', #143, .T. ) ;
#203 = AXIS2_PLACEMENT_3D ( 'NONE', #82, #62, #147 ) ;
#204 = CARTESIAN_POINT ( 'NONE',  ( 0.000000000000000000, 0.000000000000000000, 0.000000000000000000 ) ) ;
#205 = CC_DESIGN_PERSON_AND_ORGANIZATION_ASSIGNMENT ( #10, #6, ( #215 ) ) ;
#206 = AXIS2_PLACEMENT_3D ( 'NONE', #152, #302, #87 ) ;
#207 = ORIENTED_EDGE ( 'NONE', *, *, #288, .T. ) ;
#208 = ORIENTED_EDGE ( 'NONE', *, *, #45, .F. ) ;
#209 = VERTEX_POINT ( 'NONE', #135 ) ;
#210 = ORIENTED_EDGE ( 'NONE', *, *, #190, .T. ) ;
#211 = ADVANCED_FACE ( 'NONE', ( #64 ), #38, .F. ) ;
#212 = ORIENTED_EDGE ( 'NONE', *, *, #45, .T. ) ;
#213 = AXIS2_PLACEMENT_3D ( 'NONE', #60, #32, #192 ) ;
#214 = ORIENTED_EDGE ( 'NONE', *, *, #223, .F. ) ;
#215 = PRODUCT_DEFINITION_FORMATION_WITH_SPECIFIED_SOURCE ( 'LIBOVOLNÝ', '', #220, .NOT_KNOWN. ) ;
#216 = PLANE ( 'NONE',  #50 ) ;
#217 = CARTESIAN_POINT ( 'NONE',  ( 0.000000000000000000, 0.000000000000000000, 0.000000000000000000 ) ) ;
#218 = CARTESIAN_POINT ( 'NONE',  ( 0.000000000000000000, 0.000000000000000000, 101.2000000000000171 ) ) ;
#219 = AXIS2_PLACEMENT_3D ( 'NONE', #65, #287, #17 ) ;
#220 = PRODUCT ( '46cf', '46cf', '', ( #239 ) ) ;
#221 = DIRECTION ( 'NONE',  ( 1.000000000000000000, 0.000000000000000000, 0.000000000000000000 ) ) ;
#222 = CARTESIAN_POINT ( 'NONE',  ( 0.6999999999999999556, 0.000000000000000000, 1.399999999999998579 ) ) ;
#223 = EDGE_CURVE ( 'NONE', #139, #260, #151, .T. ) ;
#224 = AXIS2_PLACEMENT_3D ( 'NONE', #204, #110, #300 ) ;
#225 = COORDINATED_UNIVERSAL_TIME_OFFSET ( 1, 0, .AHEAD. ) ;
#226 = DIRECTION ( 'NONE',  ( -1.000000000000000000, 0.000000000000000000, 0.000000000000000000 ) ) ;
#227 = TOROIDAL_SURFACE ( 'NONE', #163, 0.6999999999999999556, 0.2000000000000000111 ) ;
#228 = CALENDAR_DATE ( 2022, 20, 6 ) ;
#229 = ADVANCED_FACE ( 'NONE', ( #44 ), #227, .F. ) ;
#230 = ORIENTED_EDGE ( 'NONE', *, *, #47, .T. ) ;
#231 = ORIENTED_EDGE ( 'NONE', *, *, #92, .T. ) ;
#232 = APPROVAL_STATUS ( 'not_yet_approved' ) ;
#233 = ORIENTED_EDGE ( 'NONE', *, *, #288, .F. ) ;
#234 = VECTOR ( 'NONE', #149, 1000.000000000000000 ) ;
#235 = EDGE_LOOP ( 'NONE', ( #281, #187, #101, #189 ) ) ;
#236 = CYLINDRICAL_SURFACE ( 'NONE', #89, 0.5000000000000000000 ) ;
#237 = CARTESIAN_POINT ( 'NONE',  ( 0.6999999999999999556, 0.000000000000000000, 1.199999999999999289 ) ) ;
#238 = CARTESIAN_POINT ( 'NONE',  ( 0.000000000000000000, 0.000000000000000000, 1.399999999999998579 ) ) ;
#239 = MECHANICAL_CONTEXT ( 'NONE', #259, 'mechanical' ) ;
#240 = VERTEX_POINT ( 'NONE', #16 ) ;
#241 = PERSON_AND_ORGANIZATION ( #285, #61 ) ;
#242 = FACE_OUTER_BOUND ( 'NONE', #74, .T. ) ;
#243 = PRODUCT_RELATED_PRODUCT_CATEGORY ( 'detail', '', ( #220 ) ) ;
#244 = APPROVAL_STATUS ( 'not_yet_approved' ) ;
#245 = APPROVAL_ROLE ( '' ) ;
#246 = AXIS2_PLACEMENT_3D ( 'NONE', #296, #265, #126 ) ;
#247 = DATE_TIME_ROLE ( 'creation_date' ) ;
#248 = CYLINDRICAL_SURFACE ( 'NONE', #183, 0.5000000000000000000 ) ;
#249 = DIRECTION ( 'NONE',  ( 0.000000000000000000, 0.000000000000000000, 1.000000000000000000 ) ) ;
#250 = CIRCLE ( 'NONE', #270, 0.2000000000000000944 ) ;
#251 = CARTESIAN_POINT ( 'NONE',  ( 0.5000000000000000000, 6.123233995736766036E-17, 101.2000000000000171 ) ) ;
#252 = DATE_TIME_ROLE ( 'classification_date' ) ;
#253 = DIRECTION ( 'NONE',  ( 1.000000000000000000, 0.000000000000000000, 0.000000000000000000 ) ) ;
#254 = APPROVAL_STATUS ( 'not_yet_approved' ) ;
#255 = EDGE_CURVE ( 'NONE', #139, #240, #95, .T. ) ;
#256 = DATE_AND_TIME ( #46, #177 ) ;
#257 = EDGE_CURVE ( 'NONE', #75, #27, #250, .T. ) ;
#258 = VERTEX_POINT ( 'NONE', #267 ) ;
#259 = APPLICATION_CONTEXT ( 'configuration controlled 3d designs of mechanical parts and assemblies' ) ;
#260 = VERTEX_POINT ( 'NONE', #198 ) ;
#261 = CIRCLE ( 'NONE', #129, 0.5000000000000000000 ) ;
#262 = ORIENTED_EDGE ( 'NONE', *, *, #23, .F. ) ;
#263 = TOROIDAL_SURFACE ( 'NONE', #88, 0.6999999999999999556, 0.2000000000000000111 ) ;
#264 = ADVANCED_BREP_SHAPE_REPRESENTATION ( '46cf', ( #104, #203 ), #73 ) ;
#265 = DIRECTION ( 'NONE',  ( -0.000000000000000000, -0.000000000000000000, -1.000000000000000000 ) ) ;
#266 = LINE ( 'NONE', #33, #234 ) ;
#267 = CARTESIAN_POINT ( 'NONE',  ( -0.5000000000000000000, 0.000000000000000000, 1.399999999999998579 ) ) ;
#268 = SECURITY_CLASSIFICATION_LEVEL ( 'unclassified' ) ;
#269 = DIRECTION ( 'NONE',  ( 0.000000000000000000, 0.000000000000000000, 1.000000000000000000 ) ) ;
#270 = AXIS2_PLACEMENT_3D ( 'NONE', #222, #127, #292 ) ;
#271 = DIRECTION ( 'NONE',  ( 1.000000000000000000, 0.000000000000000000, 0.000000000000000000 ) ) ;
#272 = EDGE_LOOP ( 'NONE', ( #188, #106 ) ) ;
#273 = PERSON_AND_ORGANIZATION ( #285, #61 ) ;
#274 = DIRECTION ( 'NONE',  ( 1.000000000000000000, 0.000000000000000000, 0.000000000000000000 ) ) ;
#275 = FACE_OUTER_BOUND ( 'NONE', #293, .T. ) ;
#276 = DIRECTION ( 'NONE',  ( 1.000000000000000000, 0.000000000000000000, 0.000000000000000000 ) ) ;
#277 = DATE_AND_TIME ( #86, #154 ) ;
#278 = DIRECTION ( 'NONE',  ( -0.000000000000000000, -0.000000000000000000, -1.000000000000000000 ) ) ;
#279 = AXIS2_PLACEMENT_3D ( 'NONE', #238, #199, #176 ) ;
#280 = APPROVAL_DATE_TIME ( #113, #142 ) ;
#281 = ORIENTED_EDGE ( 'NONE', *, *, #92, .F. ) ;
#282 = ORIENTED_EDGE ( 'NONE', *, *, #165, .T. ) ;
#283 = CC_DESIGN_APPROVAL ( #8, ( #137 ) ) ;
#284 = ORIENTED_EDGE ( 'NONE', *, *, #257, .F. ) ;
#285 = PERSON ( 'NEURÈENÝ', 'NEURÈENÝ', 'NEURÈENÝ', ('NEURÈENÝ'), ('NEURÈENÝ'), ('NEURÈENÝ') ) ;
#286 = ORIENTED_EDGE ( 'NONE', *, *, #122, .T. ) ;
#287 = DIRECTION ( 'NONE',  ( 0.000000000000000000, 0.000000000000000000, 1.000000000000000000 ) ) ;
#288 = EDGE_CURVE ( 'NONE', #209, #258, #35, .T. ) ;
#289 = VECTOR ( 'NONE', #295, 1000.000000000000000 ) ;
#290 = PERSON_AND_ORGANIZATION ( #285, #61 ) ;
#291 = DIRECTION ( 'NONE',  ( 0.000000000000000000, 0.000000000000000000, 1.000000000000000000 ) ) ;
#292 = DIRECTION ( 'NONE',  ( 0.000000000000000000, 0.000000000000000000, -1.000000000000000000 ) ) ;
#293 = EDGE_LOOP ( 'NONE', ( #78, #170, #51, #5 ) ) ;
#294 = CLOSED_SHELL ( 'NONE', ( #114, #31, #69, #171, #72, #211, #144, #59, #229 ) ) ;
#295 = DIRECTION ( 'NONE',  ( -0.000000000000000000, -0.000000000000000000, -1.000000000000000000 ) ) ;
#296 = CARTESIAN_POINT ( 'NONE',  ( 0.000000000000000000, 0.000000000000000000, 1.199999999999999956 ) ) ;
#297 = PERSON_AND_ORGANIZATION_ROLE ( 'design_owner' ) ;
#298 = CARTESIAN_POINT ( 'NONE',  ( 0.000000000000000000, 0.000000000000000000, 101.2000000000000171 ) ) ;
#299 =( NAMED_UNIT ( * ) SI_UNIT ( $, .STERADIAN. ) SOLID_ANGLE_UNIT ( ) );
#300 = DIRECTION ( 'NONE',  ( 1.000000000000000000, 0.000000000000000000, 0.000000000000000000 ) ) ;
#301 = DIRECTION ( 'NONE',  ( 0.000000000000000000, 0.000000000000000000, 1.000000000000000000 ) ) ;
#302 = DIRECTION ( 'NONE',  ( 0.000000000000000000, 0.000000000000000000, 1.000000000000000000 ) ) ;
#303 = CC_DESIGN_DATE_AND_TIME_ASSIGNMENT ( #125, #252, ( #137 ) ) ;
#304 = PERSON_AND_ORGANIZATION ( #285, #61 ) ;
#305 = PERSON_AND_ORGANIZATION ( #285, #61 ) ;
#306 = APPROVAL_DATE_TIME ( #136, #8 ) ;
#307 = AXIS2_PLACEMENT_3D ( 'NONE', #39, #175, #180 ) ;
ENDSEC;
END-ISO-10303-21;
