ISO-10303-21;
HEADER;
FILE_DESCRIPTION (( 'STEP AP203' ),
    '1' );
FILE_NAME ('3fc2.STEP',
    '2022-06-16T06:32:03',
    ( '' ),
    ( '' ),
    'SwSTEP 2.0',
    'SolidWorks 2019',
    '' );
FILE_SCHEMA (( 'CONFIG_CONTROL_DESIGN' ));
ENDSEC;

DATA;
#1 = ORIENTED_EDGE ( 'NONE', *, *, #246, .T. ) ;
#2 = DIRECTION ( 'NONE',  ( 1.000000000000000000, 0.000000000000000000, 0.000000000000000000 ) ) ;
#3 = PRODUCT_RELATED_PRODUCT_CATEGORY ( 'detail', '', ( #106 ) ) ;
#4 = PERSON_AND_ORGANIZATION ( #68, #187 ) ;
#5 = DATE_TIME_ROLE ( 'classification_date' ) ;
#6 = COORDINATED_UNIVERSAL_TIME_OFFSET ( 1, 0, .AHEAD. ) ;
#7 = EDGE_CURVE ( 'NONE', #276, #77, #74, .T. ) ;
#8 = ORIENTED_EDGE ( 'NONE', *, *, #238, .T. ) ;
#9 = DATE_AND_TIME ( #66, #265 ) ;
#10 = CIRCLE ( 'NONE', #91, 16.19999999999999929 ) ;
#11 = ORIENTED_EDGE ( 'NONE', *, *, #110, .F. ) ;
#12 = EDGE_LOOP ( 'NONE', ( #8, #196 ) ) ;
#13 = CARTESIAN_POINT ( 'NONE',  ( 16.00000000000000000, 1.959434878635765131E-15, 1010.000000000000000 ) ) ;
#14 = CIRCLE ( 'NONE', #140, 20.00000000000000000 ) ;
#15 = ORIENTED_EDGE ( 'NONE', *, *, #29, .T. ) ;
#16 = DIRECTION ( 'NONE',  ( 0.000000000000000000, 0.000000000000000000, 1.000000000000000000 ) ) ;
#17 = ORIENTED_EDGE ( 'NONE', *, *, #29, .F. ) ;
#18 = DIRECTION ( 'NONE',  ( -1.000000000000000000, 0.000000000000000000, 0.000000000000000000 ) ) ;
#19 = AXIS2_PLACEMENT_3D ( 'NONE', #126, #16, #202 ) ;
#20 = CARTESIAN_POINT ( 'NONE',  ( 0.000000000000000000, 0.000000000000000000, 10.19999999999998685 ) ) ;
#21 = DIRECTION ( 'NONE',  ( 0.000000000000000000, 0.000000000000000000, 1.000000000000000000 ) ) ;
#22 = LINE ( 'NONE', #261, #65 ) ;
#23 = VECTOR ( 'NONE', #296, 1000.000000000000000 ) ;
#24 = CARTESIAN_POINT ( 'NONE',  ( 0.000000000000000000, 0.000000000000000000, 1010.000000000000000 ) ) ;
#25 = VERTEX_POINT ( 'NONE', #80 ) ;
#26 = EDGE_CURVE ( 'NONE', #206, #285, #154, .T. ) ;
#27 = PERSON_AND_ORGANIZATION_ROLE ( 'creator' ) ;
#28 = AXIS2_PLACEMENT_3D ( 'NONE', #113, #209, #160 ) ;
#29 = EDGE_CURVE ( 'NONE', #25, #51, #219, .T. ) ;
#30 = CC_DESIGN_APPROVAL ( #200, ( #86 ) ) ;
#31 = DATE_AND_TIME ( #190, #182 ) ;
#32 = PLANE ( 'NONE',  #150 ) ;
#33 = DIRECTION ( 'NONE',  ( 1.000000000000000000, 0.000000000000000000, -0.000000000000000000 ) ) ;
#34 = EDGE_CURVE ( 'NONE', #181, #127, #14, .T. ) ;
#35 = LINE ( 'NONE', #273, #192 ) ;
#36 = ORIENTED_EDGE ( 'NONE', *, *, #246, .F. ) ;
#37 = EDGE_CURVE ( 'NONE', #77, #25, #177, .T. ) ;
#38 = LINE ( 'NONE', #231, #23 ) ;
#39 = DIRECTION ( 'NONE',  ( 1.000000000000000000, 0.000000000000000000, 0.000000000000000000 ) ) ;
#40 = FACE_OUTER_BOUND ( 'NONE', #79, .T. ) ;
#41 = CARTESIAN_POINT ( 'NONE',  ( 20.00000000000000000, 2.449293598294706513E-15, 10.00000000000000000 ) ) ;
#42 = DIRECTION ( 'NONE',  ( 0.000000000000000000, 0.000000000000000000, 1.000000000000000000 ) ) ;
#43 = FACE_OUTER_BOUND ( 'NONE', #95, .T. ) ;
#44 = EDGE_CURVE ( 'NONE', #127, #299, #35, .T. ) ;
#45 = APPLICATION_CONTEXT ( 'configuration controlled 3d designs of mechanical parts and assemblies' ) ;
#46 = DATE_AND_TIME ( #171, #165 ) ;
#47 = APPROVAL_ROLE ( '' ) ;
#48 = AXIS2_PLACEMENT_3D ( 'NONE', #184, #61, #281 ) ;
#49 = ORIENTED_EDGE ( 'NONE', *, *, #26, .F. ) ;
#50 = DIRECTION ( 'NONE',  ( 0.000000000000000000, 0.000000000000000000, -1.000000000000000000 ) ) ;
#51 = VERTEX_POINT ( 'NONE', #129 ) ;
#52 = CC_DESIGN_APPROVAL ( #85, ( #145 ) ) ;
#53 = DIRECTION ( 'NONE',  ( -1.000000000000000000, 0.000000000000000000, 0.000000000000000000 ) ) ;
#54 = DIRECTION ( 'NONE',  ( 1.224646799147353207E-16, 1.000000000000000000, -0.000000000000000000 ) ) ;
#55 = DIRECTION ( 'NONE',  ( 1.000000000000000000, 0.000000000000000000, 0.000000000000000000 ) ) ;
#56 = AXIS2_PLACEMENT_3D ( 'NONE', #24, #117, #18 ) ;
#57 = CARTESIAN_POINT ( 'NONE',  ( 0.000000000000000000, 0.000000000000000000, 10.19999999999998685 ) ) ;
#58 = CYLINDRICAL_SURFACE ( 'NONE', #283, 16.00000000000000000 ) ;
#59 = DIRECTION ( 'NONE',  ( 1.000000000000000000, 0.000000000000000000, 0.000000000000000000 ) ) ;
#60 = AXIS2_PLACEMENT_3D ( 'NONE', #20, #42, #39 ) ;
#61 = DIRECTION ( 'NONE',  ( 0.000000000000000000, 0.000000000000000000, 1.000000000000000000 ) ) ;
#62 = ORIENTED_EDGE ( 'NONE', *, *, #224, .T. ) ;
#63 = PLANE ( 'NONE',  #213 ) ;
#64 = DIRECTION ( 'NONE',  ( -0.000000000000000000, -0.000000000000000000, -1.000000000000000000 ) ) ;
#65 = VECTOR ( 'NONE', #215, 1000.000000000000000 ) ;
#66 = CALENDAR_DATE ( 2022, 16, 6 ) ;
#67 = ORIENTED_EDGE ( 'NONE', *, *, #44, .F. ) ;
#68 = PERSON ( 'NEURÈENÝ', 'NEURÈENÝ', 'NEURÈENÝ', ('NEURÈENÝ'), ('NEURÈENÝ'), ('NEURÈENÝ') ) ;
#69 = COORDINATED_UNIVERSAL_TIME_OFFSET ( 1, 0, .AHEAD. ) ;
#70 = CIRCLE ( 'NONE', #116, 16.19999999999999929 ) ;
#71 = AXIS2_PLACEMENT_3D ( 'NONE', #278, #21, #59 ) ;
#72 = APPROVAL_STATUS ( 'not_yet_approved' ) ;
#73 = CYLINDRICAL_SURFACE ( 'NONE', #264, 20.00000000000000000 ) ;
#74 = CIRCLE ( 'NONE', #223, 16.00000000000000000 ) ;
#75 = DIRECTION ( 'NONE',  ( 0.000000000000000000, 0.000000000000000000, 1.000000000000000000 ) ) ;
#76 = CC_DESIGN_PERSON_AND_ORGANIZATION_ASSIGNMENT ( #194, #216, ( #106 ) ) ;
#77 = VERTEX_POINT ( 'NONE', #13 ) ;
#78 = DIRECTION ( 'NONE',  ( 0.000000000000000000, -1.000000000000000000, 0.000000000000000000 ) ) ;
#79 = EDGE_LOOP ( 'NONE', ( #107, #147, #248, #105 ) ) ;
#80 = CARTESIAN_POINT ( 'NONE',  ( 16.00000000000000000, 1.959434878635765131E-15, 10.19999999999998685 ) ) ;
#81 = DIRECTION ( 'NONE',  ( 0.000000000000000000, 0.000000000000000000, 1.000000000000000000 ) ) ;
#82 = APPROVAL ( #72, 'NEURÈENÝ' ) ;
#83 = CARTESIAN_POINT ( 'NONE',  ( 0.000000000000000000, 0.000000000000000000, 10.19999999999998685 ) ) ;
#84 = DIRECTION ( 'NONE',  ( 1.000000000000000000, 0.000000000000000000, 0.000000000000000000 ) ) ;
#85 = APPROVAL ( #169, 'NEURÈENÝ' ) ;
#86 = SECURITY_CLASSIFICATION ( '', '', #241 ) ;
#87 = DIRECTION ( 'NONE',  ( -1.000000000000000000, 0.000000000000000000, 0.000000000000000000 ) ) ;
#88 = DIRECTION ( 'NONE',  ( 0.000000000000000000, 0.000000000000000000, 1.000000000000000000 ) ) ;
#89 = UNCERTAINTY_MEASURE_WITH_UNIT (LENGTH_MEASURE( 1.000000000000000082E-05 ), #164, 'distance_accuracy_value', 'NONE');
#90 = PERSON_AND_ORGANIZATION ( #68, #187 ) ;
#91 = AXIS2_PLACEMENT_3D ( 'NONE', #111, #237, #236 ) ;
#92 = CARTESIAN_POINT ( 'NONE',  ( 0.000000000000000000, 0.000000000000000000, 0.000000000000000000 ) ) ;
#93 = CALENDAR_DATE ( 2022, 16, 6 ) ;
#94 = CALENDAR_DATE ( 2022, 16, 6 ) ;
#95 = EDGE_LOOP ( 'NONE', ( #178, #134 ) ) ;
#96 = ADVANCED_FACE ( 'NONE', ( #128 ), #32, .F. ) ;
#97 = CIRCLE ( 'NONE', #71, 20.00000000000000000 ) ;
#98 = EDGE_CURVE ( 'NONE', #276, #206, #38, .T. ) ;
#99 = ORIENTED_EDGE ( 'NONE', *, *, #37, .F. ) ;
#100 = DIRECTION ( 'NONE',  ( -1.000000000000000000, 1.224646799147353947E-16, 0.000000000000000000 ) ) ;
#101 = CARTESIAN_POINT ( 'NONE',  ( 0.000000000000000000, 0.000000000000000000, 10.00000000000000000 ) ) ;
#102 = CIRCLE ( 'NONE', #212, 16.00000000000000000 ) ;
#103 = ORIENTED_EDGE ( 'NONE', *, *, #163, .F. ) ;
#104 = APPROVAL_PERSON_ORGANIZATION ( #4, #85, #47 ) ;
#105 = ORIENTED_EDGE ( 'NONE', *, *, #98, .F. ) ;
#106 = PRODUCT ( '3fc2', '3fc2', '', ( #167 ) ) ;
#107 = ORIENTED_EDGE ( 'NONE', *, *, #189, .F. ) ;
#108 = ADVANCED_FACE ( 'NONE', ( #295 ), #73, .T. ) ;
#109 = ORIENTED_EDGE ( 'NONE', *, *, #300, .F. ) ;
#110 = EDGE_CURVE ( 'NONE', #127, #181, #258, .T. ) ;
#111 = CARTESIAN_POINT ( 'NONE',  ( 0.000000000000000000, 0.000000000000000000, 10.00000000000000000 ) ) ;
#112 = CIRCLE ( 'NONE', #240, 16.00000000000000000 ) ;
#113 = CARTESIAN_POINT ( 'NONE',  ( 0.000000000000000000, 0.000000000000000000, 10.19999999999998685 ) ) ;
#114 = FACE_OUTER_BOUND ( 'NONE', #225, .T. ) ;
#115 = FACE_OUTER_BOUND ( 'NONE', #180, .T. ) ;
#116 = AXIS2_PLACEMENT_3D ( 'NONE', #286, #64, #142 ) ;
#117 = DIRECTION ( 'NONE',  ( -0.000000000000000000, -0.000000000000000000, -1.000000000000000000 ) ) ;
#118 = ADVANCED_FACE ( 'NONE', ( #274 ), #162, .T. ) ;
#119 = APPLICATION_PROTOCOL_DEFINITION ( 'international standard', 'config_control_design', 1994, #45 ) ;
#120 = APPROVAL_ROLE ( '' ) ;
#121 = AXIS2_PLACEMENT_3D ( 'NONE', #83, #208, #84 ) ;
#122 = APPROVAL_PERSON_ORGANIZATION ( #170, #82, #120 ) ;
#123 = APPROVAL_DATE_TIME ( #31, #85 ) ;
#124 = APPROVAL_PERSON_ORGANIZATION ( #90, #200, #191 ) ;
#125 = EDGE_LOOP ( 'NONE', ( #99, #130, #204, #1 ) ) ;
#126 = CARTESIAN_POINT ( 'NONE',  ( 0.000000000000000000, 0.000000000000000000, 10.00000000000000000 ) ) ;
#127 = VERTEX_POINT ( 'NONE', #41 ) ;
#128 = FACE_OUTER_BOUND ( 'NONE', #251, .T. ) ;
#129 = CARTESIAN_POINT ( 'NONE',  ( 16.19999999999999929, 0.000000000000000000, 9.999999999999992895 ) ) ;
#130 = ORIENTED_EDGE ( 'NONE', *, *, #7, .F. ) ;
#131 = ORIENTED_EDGE ( 'NONE', *, *, #157, .T. ) ;
#132 = CC_DESIGN_DATE_AND_TIME_ASSIGNMENT ( #9, #168, ( #145 ) ) ;
#133 = CARTESIAN_POINT ( 'NONE',  ( 0.000000000000000000, 0.000000000000000000, 1010.000000000000000 ) ) ;
#134 = ORIENTED_EDGE ( 'NONE', *, *, #189, .T. ) ;
#135 = CARTESIAN_POINT ( 'NONE',  ( -16.00000000000000000, 0.000000000000000000, 1010.000000000000000 ) ) ;
#136 = LOCAL_TIME ( 8, 32, 3.000000000000000000, #6 ) ;
#137 = CARTESIAN_POINT ( 'NONE',  ( 0.000000000000000000, 0.000000000000000000, 1010.000000000000000 ) ) ;
#138 = CARTESIAN_POINT ( 'NONE',  ( 0.000000000000000000, 0.000000000000000000, 1010.000000000000000 ) ) ;
#139 = CARTESIAN_POINT ( 'NONE',  ( 0.000000000000000000, 0.000000000000000000, 10.00000000000000000 ) ) ;
#140 = AXIS2_PLACEMENT_3D ( 'NONE', #294, #151, #55 ) ;
#141 =( NAMED_UNIT ( * ) PLANE_ANGLE_UNIT ( ) SI_UNIT ( $, .RADIAN. ) );
#142 = DIRECTION ( 'NONE',  ( 1.000000000000000000, 0.000000000000000000, 0.000000000000000000 ) ) ;
#143 = DIRECTION ( 'NONE',  ( 0.000000000000000000, 0.000000000000000000, 1.000000000000000000 ) ) ;
#144 = CC_DESIGN_SECURITY_CLASSIFICATION ( #86, ( #302 ) ) ;
#145 = PRODUCT_DEFINITION ( 'NEZNÁMÝ', '', #302, #166 ) ;
#146 = PERSON_AND_ORGANIZATION ( #68, #187 ) ;
#147 = ORIENTED_EDGE ( 'NONE', *, *, #37, .T. ) ;
#148 = DIRECTION ( 'NONE',  ( -0.000000000000000000, -0.000000000000000000, -1.000000000000000000 ) ) ;
#149 = ORIENTED_EDGE ( 'NONE', *, *, #238, .F. ) ;
#150 = AXIS2_PLACEMENT_3D ( 'NONE', #227, #255, #33 ) ;
#151 = DIRECTION ( 'NONE',  ( 0.000000000000000000, 0.000000000000000000, 1.000000000000000000 ) ) ;
#152 = EDGE_LOOP ( 'NONE', ( #67, #268, #193, #131 ) ) ;
#153 = DIRECTION ( 'NONE',  ( -0.000000000000000000, -0.000000000000000000, -1.000000000000000000 ) ) ;
#154 = CIRCLE ( 'NONE', #306, 0.1999999999999987899 ) ;
#155 = CARTESIAN_POINT ( 'NONE',  ( 16.00000000000000000, 1.959434878635765131E-15, 1010.000000000000000 ) ) ;
#156 = EDGE_CURVE ( 'NONE', #25, #206, #234, .T. ) ;
#157 = EDGE_CURVE ( 'NONE', #271, #299, #244, .T. ) ;
#158 = FACE_BOUND ( 'NONE', #12, .T. ) ;
#159 = DIRECTION ( 'NONE',  ( -1.000000000000000000, 0.000000000000000000, 0.000000000000000000 ) ) ;
#160 = DIRECTION ( 'NONE',  ( 1.000000000000000000, 0.000000000000000000, 0.000000000000000000 ) ) ;
#161 = AXIS2_PLACEMENT_3D ( 'NONE', #139, #303, #210 ) ;
#162 = CYLINDRICAL_SURFACE ( 'NONE', #56, 16.00000000000000000 ) ;
#163 = EDGE_CURVE ( 'NONE', #181, #271, #22, .T. ) ;
#164 =( LENGTH_UNIT ( ) NAMED_UNIT ( * ) SI_UNIT ( .MILLI., .METRE. ) );
#165 = LOCAL_TIME ( 8, 32, 3.000000000000000000, #69 ) ;
#166 = DESIGN_CONTEXT ( 'detailed design', #207, 'design' ) ;
#167 = MECHANICAL_CONTEXT ( 'NONE', #45, 'mechanical' ) ;
#168 = DATE_TIME_ROLE ( 'creation_date' ) ;
#169 = APPROVAL_STATUS ( 'not_yet_approved' ) ;
#170 = PERSON_AND_ORGANIZATION ( #68, #187 ) ;
#171 = CALENDAR_DATE ( 2022, 16, 6 ) ;
#172 = ADVANCED_BREP_SHAPE_REPRESENTATION ( '3fc2', ( #198, #250 ), #203 ) ;
#173 = VECTOR ( 'NONE', #148, 1000.000000000000000 ) ;
#174 = APPROVAL_DATE_TIME ( #46, #200 ) ;
#175 = DIRECTION ( 'NONE',  ( -0.000000000000000000, -0.000000000000000000, -1.000000000000000000 ) ) ;
#176 = AXIS2_PLACEMENT_3D ( 'NONE', #211, #307, #87 ) ;
#177 = LINE ( 'NONE', #155, #173 ) ;
#178 = ORIENTED_EDGE ( 'NONE', *, *, #7, .T. ) ;
#179 = CC_DESIGN_PERSON_AND_ORGANIZATION_ASSIGNMENT ( #220, #27, ( #145 ) ) ;
#180 = EDGE_LOOP ( 'NONE', ( #36, #269, #149, #17 ) ) ;
#181 = VERTEX_POINT ( 'NONE', #304 ) ;
#182 = LOCAL_TIME ( 8, 32, 3.000000000000000000, #243 ) ;
#183 = CARTESIAN_POINT ( 'NONE',  ( -16.19999999999999929, 1.983927814618711846E-15, 10.19999999999998685 ) ) ;
#184 = CARTESIAN_POINT ( 'NONE',  ( 0.000000000000000000, 0.000000000000000000, 0.000000000000000000 ) ) ;
#185 = DIRECTION ( 'NONE',  ( -0.000000000000000000, -0.000000000000000000, -1.000000000000000000 ) ) ;
#186 = FACE_OUTER_BOUND ( 'NONE', #152, .T. ) ;
#187 = ORGANIZATION ( 'NEURÈENÝ', 'NEURÈENÝ', '' ) ;
#188 = CARTESIAN_POINT ( 'NONE',  ( 20.00000000000000000, 2.449293598294706513E-15, 0.000000000000000000 ) ) ;
#189 = EDGE_CURVE ( 'NONE', #77, #276, #112, .T. ) ;
#190 = CALENDAR_DATE ( 2022, 16, 6 ) ;
#191 = APPROVAL_ROLE ( '' ) ;
#192 = VECTOR ( 'NONE', #153, 1000.000000000000000 ) ;
#193 = ORIENTED_EDGE ( 'NONE', *, *, #163, .T. ) ;
#194 = PERSON_AND_ORGANIZATION ( #68, #187 ) ;
#195 = PERSON_AND_ORGANIZATION_ROLE ( 'design_supplier' ) ;
#196 = ORIENTED_EDGE ( 'NONE', *, *, #300, .T. ) ;
#197 = CLOSED_SHELL ( 'NONE', ( #279, #205, #108, #297, #260, #96, #118, #221, #247 ) ) ;
#198 = MANIFOLD_SOLID_BREP ( 'Zaoblit1', #197 ) ;
#199 = PERSON_AND_ORGANIZATION_ROLE ( 'classification_officer' ) ;
#200 = APPROVAL ( #293, 'NEURÈENÝ' ) ;
#201 = CARTESIAN_POINT ( 'NONE',  ( 16.19999999999999929, 0.000000000000000000, 10.19999999999998685 ) ) ;
#202 = DIRECTION ( 'NONE',  ( 1.000000000000000000, 0.000000000000000000, 0.000000000000000000 ) ) ;
#203 =( GEOMETRIC_REPRESENTATION_CONTEXT ( 3 ) GLOBAL_UNCERTAINTY_ASSIGNED_CONTEXT ( ( #89 ) ) GLOBAL_UNIT_ASSIGNED_CONTEXT ( ( #164, #141, #263 ) ) REPRESENTATION_CONTEXT ( 'NONE', 'WORKASPACE' ) );
#204 = ORIENTED_EDGE ( 'NONE', *, *, #98, .T. ) ;
#205 = ADVANCED_FACE ( 'NONE', ( #40 ), #58, .T. ) ;
#206 = VERTEX_POINT ( 'NONE', #259 ) ;
#207 = APPLICATION_CONTEXT ( 'configuration controlled 3d designs of mechanical parts and assemblies' ) ;
#208 = DIRECTION ( 'NONE',  ( 0.000000000000000000, 0.000000000000000000, 1.000000000000000000 ) ) ;
#209 = DIRECTION ( 'NONE',  ( 0.000000000000000000, 0.000000000000000000, 1.000000000000000000 ) ) ;
#210 = DIRECTION ( 'NONE',  ( 1.000000000000000000, 0.000000000000000000, -0.000000000000000000 ) ) ;
#211 = CARTESIAN_POINT ( 'NONE',  ( 0.000000000000000000, 0.000000000000000000, 10.00000000000000000 ) ) ;
#212 = AXIS2_PLACEMENT_3D ( 'NONE', #57, #81, #257 ) ;
#213 = AXIS2_PLACEMENT_3D ( 'NONE', #133, #88, #284 ) ;
#214 = LOCAL_TIME ( 8, 32, 3.000000000000000000, #218 ) ;
#215 = DIRECTION ( 'NONE',  ( -0.000000000000000000, -0.000000000000000000, -1.000000000000000000 ) ) ;
#216 = PERSON_AND_ORGANIZATION_ROLE ( 'design_owner' ) ;
#217 = PERSON_AND_ORGANIZATION ( #68, #187 ) ;
#218 = COORDINATED_UNIVERSAL_TIME_OFFSET ( 1, 0, .AHEAD. ) ;
#219 = CIRCLE ( 'NONE', #249, 0.2000000000000005107 ) ;
#220 = PERSON_AND_ORGANIZATION ( #68, #187 ) ;
#221 = ADVANCED_FACE ( 'NONE', ( #43 ), #63, .T. ) ;
#222 = SHAPE_DEFINITION_REPRESENTATION ( #230, #172 ) ;
#223 = AXIS2_PLACEMENT_3D ( 'NONE', #301, #75, #298 ) ;
#224 = EDGE_CURVE ( 'NONE', #299, #271, #97, .T. ) ;
#225 = EDGE_LOOP ( 'NONE', ( #49, #254, #15, #109 ) ) ;
#226 = ORIENTED_EDGE ( 'NONE', *, *, #110, .T. ) ;
#227 = CARTESIAN_POINT ( 'NONE',  ( 0.000000000000000000, 0.000000000000000000, 0.000000000000000000 ) ) ;
#228 = TOROIDAL_SURFACE ( 'NONE', #28, 16.19999999999999929, 0.2000000000000000111 ) ;
#229 = ORIENTED_EDGE ( 'NONE', *, *, #44, .T. ) ;
#230 = PRODUCT_DEFINITION_SHAPE ( 'NONE', 'NONE',  #145 ) ;
#231 = CARTESIAN_POINT ( 'NONE',  ( -16.00000000000000000, 0.000000000000000000, 1010.000000000000000 ) ) ;
#232 = ORIENTED_EDGE ( 'NONE', *, *, #34, .T. ) ;
#233 = PLANE ( 'NONE',  #161 ) ;
#234 = CIRCLE ( 'NONE', #60, 16.00000000000000000 ) ;
#235 = CARTESIAN_POINT ( 'NONE',  ( -16.19999999999999929, 1.983927814618711846E-15, 9.999999999999992895 ) ) ;
#236 = DIRECTION ( 'NONE',  ( 1.000000000000000000, 0.000000000000000000, 0.000000000000000000 ) ) ;
#237 = DIRECTION ( 'NONE',  ( -0.000000000000000000, -0.000000000000000000, -1.000000000000000000 ) ) ;
#238 = EDGE_CURVE ( 'NONE', #51, #285, #10, .T. ) ;
#239 = CARTESIAN_POINT ( 'NONE',  ( -20.00000000000000000, 0.000000000000000000, 0.000000000000000000 ) ) ;
#240 = AXIS2_PLACEMENT_3D ( 'NONE', #138, #262, #2 ) ;
#241 = SECURITY_CLASSIFICATION_LEVEL ( 'unclassified' ) ;
#242 = COORDINATED_UNIVERSAL_TIME_OFFSET ( 1, 0, .AHEAD. ) ;
#243 = COORDINATED_UNIVERSAL_TIME_OFFSET ( 1, 0, .AHEAD. ) ;
#244 = CIRCLE ( 'NONE', #48, 20.00000000000000000 ) ;
#245 = CC_DESIGN_APPROVAL ( #82, ( #302 ) ) ;
#246 = EDGE_CURVE ( 'NONE', #206, #25, #102, .T. ) ;
#247 = ADVANCED_FACE ( 'NONE', ( #114 ), #272, .F. ) ;
#248 = ORIENTED_EDGE ( 'NONE', *, *, #156, .T. ) ;
#249 = AXIS2_PLACEMENT_3D ( 'NONE', #201, #78, #50 ) ;
#250 = AXIS2_PLACEMENT_3D ( 'NONE', #92, #143, #287 ) ;
#251 = EDGE_LOOP ( 'NONE', ( #277, #270 ) ) ;
#252 = CC_DESIGN_PERSON_AND_ORGANIZATION_ASSIGNMENT ( #146, #195, ( #302 ) ) ;
#253 = EDGE_LOOP ( 'NONE', ( #11, #229, #62, #103 ) ) ;
#254 = ORIENTED_EDGE ( 'NONE', *, *, #156, .F. ) ;
#255 = DIRECTION ( 'NONE',  ( 0.000000000000000000, 0.000000000000000000, 1.000000000000000000 ) ) ;
#256 = FACE_OUTER_BOUND ( 'NONE', #275, .T. ) ;
#257 = DIRECTION ( 'NONE',  ( 1.000000000000000000, 0.000000000000000000, 0.000000000000000000 ) ) ;
#258 = CIRCLE ( 'NONE', #19, 20.00000000000000000 ) ;
#259 = CARTESIAN_POINT ( 'NONE',  ( -16.00000000000000000, 0.000000000000000000, 10.19999999999998685 ) ) ;
#260 = ADVANCED_FACE ( 'NONE', ( #158, #256 ), #233, .T. ) ;
#261 = CARTESIAN_POINT ( 'NONE',  ( -20.00000000000000000, 0.000000000000000000, 10.00000000000000000 ) ) ;
#262 = DIRECTION ( 'NONE',  ( 0.000000000000000000, 0.000000000000000000, 1.000000000000000000 ) ) ;
#263 =( NAMED_UNIT ( * ) SI_UNIT ( $, .STERADIAN. ) SOLID_ANGLE_UNIT ( ) );
#264 = AXIS2_PLACEMENT_3D ( 'NONE', #101, #175, #53 ) ;
#265 = LOCAL_TIME ( 8, 32, 3.000000000000000000, #242 ) ;
#266 = PERSON_AND_ORGANIZATION ( #68, #187 ) ;
#267 = DATE_AND_TIME ( #94, #214 ) ;
#268 = ORIENTED_EDGE ( 'NONE', *, *, #34, .F. ) ;
#269 = ORIENTED_EDGE ( 'NONE', *, *, #26, .T. ) ;
#270 = ORIENTED_EDGE ( 'NONE', *, *, #224, .F. ) ;
#271 = VERTEX_POINT ( 'NONE', #239 ) ;
#272 = TOROIDAL_SURFACE ( 'NONE', #121, 16.19999999999999929, 0.2000000000000000111 ) ;
#273 = CARTESIAN_POINT ( 'NONE',  ( 20.00000000000000000, 2.449293598294706513E-15, 10.00000000000000000 ) ) ;
#274 = FACE_OUTER_BOUND ( 'NONE', #125, .T. ) ;
#275 = EDGE_LOOP ( 'NONE', ( #232, #226 ) ) ;
#276 = VERTEX_POINT ( 'NONE', #135 ) ;
#277 = ORIENTED_EDGE ( 'NONE', *, *, #157, .F. ) ;
#278 = CARTESIAN_POINT ( 'NONE',  ( 0.000000000000000000, 0.000000000000000000, 0.000000000000000000 ) ) ;
#279 = ADVANCED_FACE ( 'NONE', ( #115 ), #228, .F. ) ;
#280 = CC_DESIGN_DATE_AND_TIME_ASSIGNMENT ( #290, #5, ( #86 ) ) ;
#281 = DIRECTION ( 'NONE',  ( 1.000000000000000000, 0.000000000000000000, 0.000000000000000000 ) ) ;
#282 = CC_DESIGN_PERSON_AND_ORGANIZATION_ASSIGNMENT ( #217, #199, ( #86 ) ) ;
#283 = AXIS2_PLACEMENT_3D ( 'NONE', #137, #185, #159 ) ;
#284 = DIRECTION ( 'NONE',  ( 1.000000000000000000, 0.000000000000000000, -0.000000000000000000 ) ) ;
#285 = VERTEX_POINT ( 'NONE', #235 ) ;
#286 = CARTESIAN_POINT ( 'NONE',  ( 0.000000000000000000, 0.000000000000000000, 10.00000000000000000 ) ) ;
#287 = DIRECTION ( 'NONE',  ( 1.000000000000000000, 0.000000000000000000, 0.000000000000000000 ) ) ;
#288 = PERSON_AND_ORGANIZATION_ROLE ( 'creator' ) ;
#289 = APPLICATION_PROTOCOL_DEFINITION ( 'international standard', 'config_control_design', 1994, #207 ) ;
#290 = DATE_AND_TIME ( #93, #136 ) ;
#291 = CC_DESIGN_PERSON_AND_ORGANIZATION_ASSIGNMENT ( #266, #288, ( #302 ) ) ;
#292 = APPROVAL_DATE_TIME ( #267, #82 ) ;
#293 = APPROVAL_STATUS ( 'not_yet_approved' ) ;
#294 = CARTESIAN_POINT ( 'NONE',  ( 0.000000000000000000, 0.000000000000000000, 10.00000000000000000 ) ) ;
#295 = FACE_OUTER_BOUND ( 'NONE', #253, .T. ) ;
#296 = DIRECTION ( 'NONE',  ( -0.000000000000000000, -0.000000000000000000, -1.000000000000000000 ) ) ;
#297 = ADVANCED_FACE ( 'NONE', ( #186 ), #305, .T. ) ;
#298 = DIRECTION ( 'NONE',  ( 1.000000000000000000, 0.000000000000000000, 0.000000000000000000 ) ) ;
#299 = VERTEX_POINT ( 'NONE', #188 ) ;
#300 = EDGE_CURVE ( 'NONE', #285, #51, #70, .T. ) ;
#301 = CARTESIAN_POINT ( 'NONE',  ( 0.000000000000000000, 0.000000000000000000, 1010.000000000000000 ) ) ;
#302 = PRODUCT_DEFINITION_FORMATION_WITH_SPECIFIED_SOURCE ( 'LIBOVOLNÝ', '', #106, .NOT_KNOWN. ) ;
#303 = DIRECTION ( 'NONE',  ( 0.000000000000000000, 0.000000000000000000, 1.000000000000000000 ) ) ;
#304 = CARTESIAN_POINT ( 'NONE',  ( -20.00000000000000000, 0.000000000000000000, 10.00000000000000000 ) ) ;
#305 = CYLINDRICAL_SURFACE ( 'NONE', #176, 20.00000000000000000 ) ;
#306 = AXIS2_PLACEMENT_3D ( 'NONE', #183, #54, #100 ) ;
#307 = DIRECTION ( 'NONE',  ( -0.000000000000000000, -0.000000000000000000, -1.000000000000000000 ) ) ;
ENDSEC;
END-ISO-10303-21;
