ISO-10303-21;
HEADER;
FILE_DESCRIPTION (( 'STEP AP203' ),
    '1' );
FILE_NAME ('f851.STEP',
    '2022-06-20T09:21:08',
    ( '' ),
    ( '' ),
    'SwSTEP 2.0',
    'SolidWorks 2019',
    '' );
FILE_SCHEMA (( 'CONFIG_CONTROL_DESIGN' ));
ENDSEC;

DATA;
#1 = COORDINATED_UNIVERSAL_TIME_OFFSET ( 1, 0, .AHEAD. ) ;
#2 = EDGE_LOOP ( 'NONE', ( #123, #52, #228, #107 ) ) ;
#3 = PERSON_AND_ORGANIZATION ( #128, #218 ) ;
#4 = DIRECTION ( 'NONE',  ( 0.000000000000000000, 0.000000000000000000, 1.000000000000000000 ) ) ;
#5 = CARTESIAN_POINT ( 'NONE',  ( 0.000000000000000000, 0.000000000000000000, 7.199999999999984190 ) ) ;
#6 = DIRECTION ( 'NONE',  ( 1.000000000000000000, 0.000000000000000000, -0.000000000000000000 ) ) ;
#7 = VERTEX_POINT ( 'NONE', #124 ) ;
#8 = DIRECTION ( 'NONE',  ( -0.000000000000000000, -0.000000000000000000, -1.000000000000000000 ) ) ;
#9 = ADVANCED_FACE ( 'NONE', ( #150 ), #126, .T. ) ;
#10 = DIRECTION ( 'NONE',  ( 1.000000000000000000, 0.000000000000000000, 0.000000000000000000 ) ) ;
#11 = LINE ( 'NONE', #292, #64 ) ;
#12 = LOCAL_TIME ( 11, 21, 8.000000000000000000, #43 ) ;
#13 = DIRECTION ( 'NONE',  ( 1.000000000000000000, 0.000000000000000000, 0.000000000000000000 ) ) ;
#14 = LINE ( 'NONE', #273, #57 ) ;
#15 = EDGE_CURVE ( 'NONE', #205, #264, #112, .T. ) ;
#16 = AXIS2_PLACEMENT_3D ( 'NONE', #77, #168, #207 ) ;
#17 = COORDINATED_UNIVERSAL_TIME_OFFSET ( 1, 0, .AHEAD. ) ;
#18 = LOCAL_TIME ( 11, 21, 8.000000000000000000, #1 ) ;
#19 = CYLINDRICAL_SURFACE ( 'NONE', #177, 9.000000000000000000 ) ;
#20 = ORIENTED_EDGE ( 'NONE', *, *, #89, .F. ) ;
#21 = CALENDAR_DATE ( 2022, 20, 6 ) ;
#22 = EDGE_CURVE ( 'NONE', #48, #205, #184, .T. ) ;
#23 = CALENDAR_DATE ( 2022, 20, 6 ) ;
#24 = VERTEX_POINT ( 'NONE', #125 ) ;
#25 = EDGE_LOOP ( 'NONE', ( #307, #104, #74, #29 ) ) ;
#26 = AXIS2_PLACEMENT_3D ( 'NONE', #298, #35, #36 ) ;
#27 = ORIENTED_EDGE ( 'NONE', *, *, #227, .T. ) ;
#28 = AXIS2_PLACEMENT_3D ( 'NONE', #172, #243, #82 ) ;
#29 = ORIENTED_EDGE ( 'NONE', *, *, #50, .T. ) ;
#30 = ORIENTED_EDGE ( 'NONE', *, *, #94, .T. ) ;
#31 = MANIFOLD_SOLID_BREP ( 'Zaoblit1', #117 ) ;
#32 = DIRECTION ( 'NONE',  ( -0.000000000000000000, -0.000000000000000000, -1.000000000000000000 ) ) ;
#33 = DIRECTION ( 'NONE',  ( 0.000000000000000000, 0.000000000000000000, -1.000000000000000000 ) ) ;
#34 = CC_DESIGN_PERSON_AND_ORGANIZATION_ASSIGNMENT ( #255, #254, ( #291 ) ) ;
#35 = DIRECTION ( 'NONE',  ( 0.000000000000000000, 0.000000000000000000, 1.000000000000000000 ) ) ;
#36 = DIRECTION ( 'NONE',  ( 1.000000000000000000, 0.000000000000000000, 0.000000000000000000 ) ) ;
#37 = DIRECTION ( 'NONE',  ( 1.000000000000000000, 0.000000000000000000, 0.000000000000000000 ) ) ;
#38 = ORIENTED_EDGE ( 'NONE', *, *, #271, .T. ) ;
#39 = DATE_AND_TIME ( #257, #12 ) ;
#40 =( GEOMETRIC_REPRESENTATION_CONTEXT ( 3 ) GLOBAL_UNCERTAINTY_ASSIGNED_CONTEXT ( ( #71 ) ) GLOBAL_UNIT_ASSIGNED_CONTEXT ( ( #180, #198, #66 ) ) REPRESENTATION_CONTEXT ( 'NONE', 'WORKASPACE' ) );
#41 = PERSON_AND_ORGANIZATION_ROLE ( 'creator' ) ;
#42 = PERSON_AND_ORGANIZATION ( #128, #218 ) ;
#43 = COORDINATED_UNIVERSAL_TIME_OFFSET ( 1, 0, .AHEAD. ) ;
#44 = PERSON_AND_ORGANIZATION_ROLE ( 'design_supplier' ) ;
#45 = ORIENTED_EDGE ( 'NONE', *, *, #105, .T. ) ;
#46 = ORIENTED_EDGE ( 'NONE', *, *, #157, .T. ) ;
#47 = SECURITY_CLASSIFICATION_LEVEL ( 'unclassified' ) ;
#48 = VERTEX_POINT ( 'NONE', #80 ) ;
#49 = CIRCLE ( 'NONE', #26, 12.00000000000000178 ) ;
#50 = EDGE_CURVE ( 'NONE', #235, #230, #67, .T. ) ;
#51 = APPROVAL_STATUS ( 'not_yet_approved' ) ;
#52 = ORIENTED_EDGE ( 'NONE', *, *, #119, .T. ) ;
#53 = AXIS2_PLACEMENT_3D ( 'NONE', #226, #251, #222 ) ;
#54 = ADVANCED_FACE ( 'NONE', ( #151 ), #84, .F. ) ;
#55 = CARTESIAN_POINT ( 'NONE',  ( 0.000000000000000000, 0.000000000000000000, 7.199999999999984190 ) ) ;
#56 = CARTESIAN_POINT ( 'NONE',  ( 0.000000000000000000, 0.000000000000000000, 7.000000000000000000 ) ) ;
#57 = VECTOR ( 'NONE', #188, 1000.000000000000000 ) ;
#58 = CARTESIAN_POINT ( 'NONE',  ( -9.000000000000000000, 0.000000000000000000, 7.199999999999984190 ) ) ;
#59 = ADVANCED_FACE ( 'NONE', ( #147 ), #127, .T. ) ;
#60 = CARTESIAN_POINT ( 'NONE',  ( 0.000000000000000000, 0.000000000000000000, 7.000000000000000000 ) ) ;
#61 = CARTESIAN_POINT ( 'NONE',  ( 0.000000000000000000, 0.000000000000000000, 7.000000000000000000 ) ) ;
#62 = CARTESIAN_POINT ( 'NONE',  ( 0.000000000000000000, 0.000000000000000000, 7.000000000000000000 ) ) ;
#63 = APPLICATION_CONTEXT ( 'configuration controlled 3d designs of mechanical parts and assemblies' ) ;
#64 = VECTOR ( 'NONE', #81, 1000.000000000000000 ) ;
#65 = CIRCLE ( 'NONE', #53, 0.2000000000000005107 ) ;
#66 =( NAMED_UNIT ( * ) SI_UNIT ( $, .STERADIAN. ) SOLID_ANGLE_UNIT ( ) );
#67 = CIRCLE ( 'NONE', #16, 12.00000000000000178 ) ;
#68 = PERSON_AND_ORGANIZATION ( #128, #218 ) ;
#69 = EDGE_CURVE ( 'NONE', #285, #235, #14, .T. ) ;
#70 = PRODUCT ( 'f851', 'f851', '', ( #284 ) ) ;
#71 = UNCERTAINTY_MEASURE_WITH_UNIT (LENGTH_MEASURE( 1.000000000000000082E-05 ), #180, 'distance_accuracy_value', 'NONE');
#72 = APPROVAL_PERSON_ORGANIZATION ( #161, #196, #91 ) ;
#73 = APPROVAL_DATE_TIME ( #202, #196 ) ;
#74 = ORIENTED_EDGE ( 'NONE', *, *, #69, .T. ) ;
#75 = CIRCLE ( 'NONE', #287, 9.000000000000000000 ) ;
#76 = ORIENTED_EDGE ( 'NONE', *, *, #50, .F. ) ;
#77 = CARTESIAN_POINT ( 'NONE',  ( 0.000000000000000000, 0.000000000000000000, 0.000000000000000000 ) ) ;
#78 = EDGE_CURVE ( 'NONE', #24, #281, #179, .T. ) ;
#79 = DIRECTION ( 'NONE',  ( 1.000000000000000000, 0.000000000000000000, 0.000000000000000000 ) ) ;
#80 = CARTESIAN_POINT ( 'NONE',  ( -9.000000000000000000, 0.000000000000000000, 807.0000000000000000 ) ) ;
#81 = DIRECTION ( 'NONE',  ( -0.000000000000000000, -0.000000000000000000, -1.000000000000000000 ) ) ;
#82 = DIRECTION ( 'NONE',  ( 1.000000000000000000, 0.000000000000000000, 0.000000000000000000 ) ) ;
#83 = EDGE_CURVE ( 'NONE', #285, #208, #49, .T. ) ;
#84 = TOROIDAL_SURFACE ( 'NONE', #294, 9.199999999999999289, 0.2000000000000000111 ) ;
#85 = DIRECTION ( 'NONE',  ( 1.000000000000000000, 0.000000000000000000, 0.000000000000000000 ) ) ;
#86 = SECURITY_CLASSIFICATION ( '', '', #47 ) ;
#87 = DIRECTION ( 'NONE',  ( 1.000000000000000000, 0.000000000000000000, -0.000000000000000000 ) ) ;
#88 = APPROVAL ( #51, 'NEURÈENÝ' ) ;
#89 = EDGE_CURVE ( 'NONE', #281, #24, #224, .T. ) ;
#90 = CARTESIAN_POINT ( 'NONE',  ( 12.00000000000000178, 1.469576158976824144E-15, 7.000000000000000000 ) ) ;
#91 = APPROVAL_ROLE ( '' ) ;
#92 = TOROIDAL_SURFACE ( 'NONE', #239, 9.199999999999999289, 0.2000000000000000111 ) ;
#93 = DIRECTION ( 'NONE',  ( 0.000000000000000000, 0.000000000000000000, 1.000000000000000000 ) ) ;
#94 = EDGE_CURVE ( 'NONE', #48, #7, #137, .T. ) ;
#95 = DATE_AND_TIME ( #303, #262 ) ;
#96 = EDGE_LOOP ( 'NONE', ( #242, #27, #46, #201 ) ) ;
#97 = DIRECTION ( 'NONE',  ( -1.000000000000000000, 0.000000000000000000, 0.000000000000000000 ) ) ;
#98 = ORIENTED_EDGE ( 'NONE', *, *, #78, .F. ) ;
#99 = ORIENTED_EDGE ( 'NONE', *, *, #162, .F. ) ;
#100 = AXIS2_PLACEMENT_3D ( 'NONE', #61, #32, #159 ) ;
#101 = PERSON_AND_ORGANIZATION_ROLE ( 'classification_officer' ) ;
#102 = AXIS2_PLACEMENT_3D ( 'NONE', #60, #156, #246 ) ;
#103 = EDGE_LOOP ( 'NONE', ( #76, #99 ) ) ;
#104 = ORIENTED_EDGE ( 'NONE', *, *, #83, .F. ) ;
#105 = EDGE_CURVE ( 'NONE', #208, #285, #118, .T. ) ;
#106 = EDGE_LOOP ( 'NONE', ( #256, #38, #98, #265 ) ) ;
#107 = ORIENTED_EDGE ( 'NONE', *, *, #69, .F. ) ;
#108 = CC_DESIGN_APPROVAL ( #190, ( #231 ) ) ;
#109 = CC_DESIGN_PERSON_AND_ORGANIZATION_ASSIGNMENT ( #68, #41, ( #231 ) ) ;
#110 = DIRECTION ( 'NONE',  ( -0.000000000000000000, -0.000000000000000000, -1.000000000000000000 ) ) ;
#111 = CARTESIAN_POINT ( 'NONE',  ( 0.000000000000000000, 0.000000000000000000, 807.0000000000000000 ) ) ;
#112 = CIRCLE ( 'NONE', #192, 9.000000000000000000 ) ;
#113 = CARTESIAN_POINT ( 'NONE',  ( 0.000000000000000000, 0.000000000000000000, 807.0000000000000000 ) ) ;
#114 = CIRCLE ( 'NONE', #283, 0.1999999999999996503 ) ;
#115 = CC_DESIGN_APPROVAL ( #196, ( #291 ) ) ;
#116 = FACE_BOUND ( 'NONE', #259, .T. ) ;
#117 = CLOSED_SHELL ( 'NONE', ( #261, #299, #59, #253, #185, #176, #240, #9, #54 ) ) ;
#118 = CIRCLE ( 'NONE', #28, 12.00000000000000178 ) ;
#119 = EDGE_CURVE ( 'NONE', #208, #230, #212, .T. ) ;
#120 = DIRECTION ( 'NONE',  ( 1.000000000000000000, 0.000000000000000000, 0.000000000000000000 ) ) ;
#121 = CARTESIAN_POINT ( 'NONE',  ( 0.000000000000000000, 0.000000000000000000, 7.199999999999984190 ) ) ;
#122 = COORDINATED_UNIVERSAL_TIME_OFFSET ( 1, 0, .AHEAD. ) ;
#123 = ORIENTED_EDGE ( 'NONE', *, *, #105, .F. ) ;
#124 = CARTESIAN_POINT ( 'NONE',  ( 9.000000000000000000, 1.102182119232617714E-15, 807.0000000000000000 ) ) ;
#125 = CARTESIAN_POINT ( 'NONE',  ( 9.199999999999999289, 0.000000000000000000, 6.999999999999992006 ) ) ;
#126 = PLANE ( 'NONE',  #153 ) ;
#127 = CYLINDRICAL_SURFACE ( 'NONE', #146, 12.00000000000000178 ) ;
#128 = PERSON ( 'NEURÈENÝ', 'NEURÈENÝ', 'NEURÈENÝ', ('NEURÈENÝ'), ('NEURÈENÝ'), ('NEURÈENÝ') ) ;
#129 = CARTESIAN_POINT ( 'NONE',  ( 0.000000000000000000, 0.000000000000000000, 807.0000000000000000 ) ) ;
#130 = CARTESIAN_POINT ( 'NONE',  ( -12.00000000000000178, 0.000000000000000000, 0.000000000000000000 ) ) ;
#131 = FACE_OUTER_BOUND ( 'NONE', #103, .T. ) ;
#132 = CC_DESIGN_PERSON_AND_ORGANIZATION_ASSIGNMENT ( #300, #229, ( #70 ) ) ;
#133 = DIRECTION ( 'NONE',  ( 0.000000000000000000, 0.000000000000000000, 1.000000000000000000 ) ) ;
#134 = FACE_OUTER_BOUND ( 'NONE', #233, .T. ) ;
#135 = APPLICATION_PROTOCOL_DEFINITION ( 'international standard', 'config_control_design', 1994, #165 ) ;
#136 = ORIENTED_EDGE ( 'NONE', *, *, #213, .T. ) ;
#137 = CIRCLE ( 'NONE', #175, 9.000000000000000000 ) ;
#138 = APPROVAL_STATUS ( 'not_yet_approved' ) ;
#139 = CARTESIAN_POINT ( 'NONE',  ( -9.199999999999999289, 1.126675055215564822E-15, 6.999999999999992006 ) ) ;
#140 = DIRECTION ( 'NONE',  ( 0.000000000000000000, 0.000000000000000000, 1.000000000000000000 ) ) ;
#141 = FACE_OUTER_BOUND ( 'NONE', #96, .T. ) ;
#142 = DATE_AND_TIME ( #23, #18 ) ;
#143 = ORIENTED_EDGE ( 'NONE', *, *, #157, .F. ) ;
#144 = ORIENTED_EDGE ( 'NONE', *, *, #15, .T. ) ;
#145 = CC_DESIGN_DATE_AND_TIME_ASSIGNMENT ( #234, #236, ( #86 ) ) ;
#146 = AXIS2_PLACEMENT_3D ( 'NONE', #209, #195, #158 ) ;
#147 = FACE_OUTER_BOUND ( 'NONE', #2, .T. ) ;
#148 = AXIS2_PLACEMENT_3D ( 'NONE', #56, #170, #293 ) ;
#149 = AXIS2_PLACEMENT_3D ( 'NONE', #302, #93, #120 ) ;
#150 = FACE_OUTER_BOUND ( 'NONE', #223, .T. ) ;
#151 = FACE_OUTER_BOUND ( 'NONE', #241, .T. ) ;
#152 = FACE_OUTER_BOUND ( 'NONE', #237, .T. ) ;
#153 = AXIS2_PLACEMENT_3D ( 'NONE', #267, #206, #6 ) ;
#154 = CARTESIAN_POINT ( 'NONE',  ( 12.00000000000000178, 1.469576158976824144E-15, 7.000000000000000000 ) ) ;
#155 = APPROVAL_PERSON_ORGANIZATION ( #266, #88, #258 ) ;
#156 = DIRECTION ( 'NONE',  ( -0.000000000000000000, -0.000000000000000000, -1.000000000000000000 ) ) ;
#157 = EDGE_CURVE ( 'NONE', #264, #205, #75, .T. ) ;
#158 = DIRECTION ( 'NONE',  ( -1.000000000000000000, 0.000000000000000000, 0.000000000000000000 ) ) ;
#159 = DIRECTION ( 'NONE',  ( 1.000000000000000000, 0.000000000000000000, 0.000000000000000000 ) ) ;
#160 = CARTESIAN_POINT ( 'NONE',  ( 9.000000000000000000, 1.102182119232617714E-15, 7.199999999999984190 ) ) ;
#161 = PERSON_AND_ORGANIZATION ( #128, #218 ) ;
#162 = EDGE_CURVE ( 'NONE', #230, #235, #193, .T. ) ;
#163 = APPROVAL_STATUS ( 'not_yet_approved' ) ;
#164 = ORIENTED_EDGE ( 'NONE', *, *, #220, .T. ) ;
#165 = APPLICATION_CONTEXT ( 'configuration controlled 3d designs of mechanical parts and assemblies' ) ;
#166 = ORIENTED_EDGE ( 'NONE', *, *, #89, .T. ) ;
#167 = ORIENTED_EDGE ( 'NONE', *, *, #94, .F. ) ;
#168 = DIRECTION ( 'NONE',  ( 0.000000000000000000, 0.000000000000000000, 1.000000000000000000 ) ) ;
#169 = DIRECTION ( 'NONE',  ( 0.000000000000000000, -1.000000000000000000, 0.000000000000000000 ) ) ;
#170 = DIRECTION ( 'NONE',  ( 0.000000000000000000, 0.000000000000000000, 1.000000000000000000 ) ) ;
#171 = PLANE ( 'NONE',  #148 ) ;
#172 = CARTESIAN_POINT ( 'NONE',  ( 0.000000000000000000, 0.000000000000000000, 7.000000000000000000 ) ) ;
#173 = ADVANCED_BREP_SHAPE_REPRESENTATION ( 'f851', ( #31, #149 ), #40 ) ;
#174 = DIRECTION ( 'NONE',  ( 0.000000000000000000, 0.000000000000000000, 1.000000000000000000 ) ) ;
#175 = AXIS2_PLACEMENT_3D ( 'NONE', #129, #189, #10 ) ;
#176 = ADVANCED_FACE ( 'NONE', ( #131 ), #221, .F. ) ;
#177 = AXIS2_PLACEMENT_3D ( 'NONE', #178, #279, #97 ) ;
#178 = CARTESIAN_POINT ( 'NONE',  ( 0.000000000000000000, 0.000000000000000000, 807.0000000000000000 ) ) ;
#179 = CIRCLE ( 'NONE', #272, 9.199999999999999289 ) ;
#180 =( LENGTH_UNIT ( ) NAMED_UNIT ( * ) SI_UNIT ( .MILLI., .METRE. ) );
#181 = PRODUCT_DEFINITION_SHAPE ( 'NONE', 'NONE',  #291 ) ;
#182 = ORIENTED_EDGE ( 'NONE', *, *, #78, .T. ) ;
#183 = DIRECTION ( 'NONE',  ( 1.000000000000000000, 0.000000000000000000, 0.000000000000000000 ) ) ;
#184 = LINE ( 'NONE', #186, #282 ) ;
#185 = ADVANCED_FACE ( 'NONE', ( #116, #134 ), #171, .T. ) ;
#186 = CARTESIAN_POINT ( 'NONE',  ( -9.000000000000000000, 0.000000000000000000, 807.0000000000000000 ) ) ;
#187 = VECTOR ( 'NONE', #110, 1000.000000000000000 ) ;
#188 = DIRECTION ( 'NONE',  ( -0.000000000000000000, -0.000000000000000000, -1.000000000000000000 ) ) ;
#189 = DIRECTION ( 'NONE',  ( 0.000000000000000000, 0.000000000000000000, 1.000000000000000000 ) ) ;
#190 = APPROVAL ( #138, 'NEURÈENÝ' ) ;
#191 = DIRECTION ( 'NONE',  ( -0.000000000000000000, -0.000000000000000000, -1.000000000000000000 ) ) ;
#192 = AXIS2_PLACEMENT_3D ( 'NONE', #55, #4, #183 ) ;
#193 = CIRCLE ( 'NONE', #249, 12.00000000000000178 ) ;
#194 = FACE_OUTER_BOUND ( 'NONE', #106, .T. ) ;
#195 = DIRECTION ( 'NONE',  ( -0.000000000000000000, -0.000000000000000000, -1.000000000000000000 ) ) ;
#196 = APPROVAL ( #163, 'NEURÈENÝ' ) ;
#197 = CARTESIAN_POINT ( 'NONE',  ( -12.00000000000000178, 0.000000000000000000, 7.000000000000000000 ) ) ;
#198 =( NAMED_UNIT ( * ) PLANE_ANGLE_UNIT ( ) SI_UNIT ( $, .RADIAN. ) );
#199 = COORDINATED_UNIVERSAL_TIME_OFFSET ( 1, 0, .AHEAD. ) ;
#200 = APPLICATION_PROTOCOL_DEFINITION ( 'international standard', 'config_control_design', 1994, #63 ) ;
#201 = ORIENTED_EDGE ( 'NONE', *, *, #22, .F. ) ;
#202 = DATE_AND_TIME ( #21, #296 ) ;
#203 = APPROVAL_DATE_TIME ( #142, #88 ) ;
#204 = CALENDAR_DATE ( 2022, 20, 6 ) ;
#205 = VERTEX_POINT ( 'NONE', #58 ) ;
#206 = DIRECTION ( 'NONE',  ( 0.000000000000000000, 0.000000000000000000, 1.000000000000000000 ) ) ;
#207 = DIRECTION ( 'NONE',  ( 1.000000000000000000, 0.000000000000000000, 0.000000000000000000 ) ) ;
#208 = VERTEX_POINT ( 'NONE', #154 ) ;
#209 = CARTESIAN_POINT ( 'NONE',  ( 0.000000000000000000, 0.000000000000000000, 7.000000000000000000 ) ) ;
#210 = AXIS2_PLACEMENT_3D ( 'NONE', #277, #248, #87 ) ;
#211 = CC_DESIGN_APPROVAL ( #88, ( #86 ) ) ;
#212 = LINE ( 'NONE', #90, #187 ) ;
#213 = EDGE_CURVE ( 'NONE', #7, #48, #244, .T. ) ;
#214 = CYLINDRICAL_SURFACE ( 'NONE', #260, 9.000000000000000000 ) ;
#215 = CYLINDRICAL_SURFACE ( 'NONE', #102, 12.00000000000000178 ) ;
#216 = DESIGN_CONTEXT ( 'detailed design', #63, 'design' ) ;
#217 = CARTESIAN_POINT ( 'NONE',  ( 0.000000000000000000, 0.000000000000000000, 7.199999999999984190 ) ) ;
#218 = ORGANIZATION ( 'NEURÈENÝ', 'NEURÈENÝ', '' ) ;
#219 = CC_DESIGN_PERSON_AND_ORGANIZATION_ASSIGNMENT ( #263, #44, ( #231 ) ) ;
#220 = EDGE_CURVE ( 'NONE', #264, #24, #114, .T. ) ;
#221 = PLANE ( 'NONE',  #210 ) ;
#222 = DIRECTION ( 'NONE',  ( -1.000000000000000000, 1.224646799147353207E-16, 0.000000000000000000 ) ) ;
#223 = EDGE_LOOP ( 'NONE', ( #30, #136 ) ) ;
#224 = CIRCLE ( 'NONE', #100, 9.199999999999999289 ) ;
#225 = APPROVAL_ROLE ( '' ) ;
#226 = CARTESIAN_POINT ( 'NONE',  ( -9.199999999999999289, 1.126675055215564822E-15, 7.199999999999984190 ) ) ;
#227 = EDGE_CURVE ( 'NONE', #7, #264, #11, .T. ) ;
#228 = ORIENTED_EDGE ( 'NONE', *, *, #162, .T. ) ;
#229 = PERSON_AND_ORGANIZATION_ROLE ( 'design_owner' ) ;
#230 = VERTEX_POINT ( 'NONE', #270 ) ;
#231 = PRODUCT_DEFINITION_FORMATION_WITH_SPECIFIED_SOURCE ( 'LIBOVOLNÝ', '', #70, .NOT_KNOWN. ) ;
#232 = SHAPE_DEFINITION_REPRESENTATION ( #181, #173 ) ;
#233 = EDGE_LOOP ( 'NONE', ( #290, #45 ) ) ;
#234 = DATE_AND_TIME ( #204, #278 ) ;
#235 = VERTEX_POINT ( 'NONE', #130 ) ;
#236 = DATE_TIME_ROLE ( 'classification_date' ) ;
#237 = EDGE_LOOP ( 'NONE', ( #286, #167, #269, #144 ) ) ;
#238 = AXIS2_PLACEMENT_3D ( 'NONE', #113, #133, #13 ) ;
#239 = AXIS2_PLACEMENT_3D ( 'NONE', #121, #140, #306 ) ;
#240 = ADVANCED_FACE ( 'NONE', ( #152 ), #214, .T. ) ;
#241 = EDGE_LOOP ( 'NONE', ( #252, #143, #164, #20 ) ) ;
#242 = ORIENTED_EDGE ( 'NONE', *, *, #213, .F. ) ;
#243 = DIRECTION ( 'NONE',  ( 0.000000000000000000, 0.000000000000000000, 1.000000000000000000 ) ) ;
#244 = CIRCLE ( 'NONE', #238, 9.000000000000000000 ) ;
#245 = CARTESIAN_POINT ( 'NONE',  ( 9.199999999999999289, 0.000000000000000000, 7.199999999999984190 ) ) ;
#246 = DIRECTION ( 'NONE',  ( -1.000000000000000000, 0.000000000000000000, 0.000000000000000000 ) ) ;
#247 = CC_DESIGN_PERSON_AND_ORGANIZATION_ASSIGNMENT ( #3, #101, ( #86 ) ) ;
#248 = DIRECTION ( 'NONE',  ( 0.000000000000000000, 0.000000000000000000, 1.000000000000000000 ) ) ;
#249 = AXIS2_PLACEMENT_3D ( 'NONE', #297, #250, #276 ) ;
#250 = DIRECTION ( 'NONE',  ( 0.000000000000000000, 0.000000000000000000, 1.000000000000000000 ) ) ;
#251 = DIRECTION ( 'NONE',  ( 1.224646799147353207E-16, 1.000000000000000000, -0.000000000000000000 ) ) ;
#252 = ORIENTED_EDGE ( 'NONE', *, *, #271, .F. ) ;
#253 = ADVANCED_FACE ( 'NONE', ( #275 ), #215, .T. ) ;
#254 = PERSON_AND_ORGANIZATION_ROLE ( 'creator' ) ;
#255 = PERSON_AND_ORGANIZATION ( #128, #218 ) ;
#256 = ORIENTED_EDGE ( 'NONE', *, *, #15, .F. ) ;
#257 = CALENDAR_DATE ( 2022, 20, 6 ) ;
#258 = APPROVAL_ROLE ( '' ) ;
#259 = EDGE_LOOP ( 'NONE', ( #182, #166 ) ) ;
#260 = AXIS2_PLACEMENT_3D ( 'NONE', #111, #191, #295 ) ;
#261 = ADVANCED_FACE ( 'NONE', ( #194 ), #92, .F. ) ;
#262 = LOCAL_TIME ( 11, 21, 8.000000000000000000, #17 ) ;
#263 = PERSON_AND_ORGANIZATION ( #128, #218 ) ;
#264 = VERTEX_POINT ( 'NONE', #160 ) ;
#265 = ORIENTED_EDGE ( 'NONE', *, *, #220, .F. ) ;
#266 = PERSON_AND_ORGANIZATION ( #128, #218 ) ;
#267 = CARTESIAN_POINT ( 'NONE',  ( 0.000000000000000000, 0.000000000000000000, 807.0000000000000000 ) ) ;
#268 = APPROVAL_PERSON_ORGANIZATION ( #42, #190, #225 ) ;
#269 = ORIENTED_EDGE ( 'NONE', *, *, #22, .T. ) ;
#270 = CARTESIAN_POINT ( 'NONE',  ( 12.00000000000000178, 1.469576158976824144E-15, 0.000000000000000000 ) ) ;
#271 = EDGE_CURVE ( 'NONE', #205, #281, #65, .T. ) ;
#272 = AXIS2_PLACEMENT_3D ( 'NONE', #62, #8, #37 ) ;
#273 = CARTESIAN_POINT ( 'NONE',  ( -12.00000000000000178, 0.000000000000000000, 7.000000000000000000 ) ) ;
#274 = CC_DESIGN_SECURITY_CLASSIFICATION ( #86, ( #231 ) ) ;
#275 = FACE_OUTER_BOUND ( 'NONE', #25, .T. ) ;
#276 = DIRECTION ( 'NONE',  ( 1.000000000000000000, 0.000000000000000000, 0.000000000000000000 ) ) ;
#277 = CARTESIAN_POINT ( 'NONE',  ( 0.000000000000000000, 0.000000000000000000, 0.000000000000000000 ) ) ;
#278 = LOCAL_TIME ( 11, 21, 8.000000000000000000, #122 ) ;
#279 = DIRECTION ( 'NONE',  ( -0.000000000000000000, -0.000000000000000000, -1.000000000000000000 ) ) ;
#280 = APPROVAL_DATE_TIME ( #95, #190 ) ;
#281 = VERTEX_POINT ( 'NONE', #139 ) ;
#282 = VECTOR ( 'NONE', #288, 1000.000000000000000 ) ;
#283 = AXIS2_PLACEMENT_3D ( 'NONE', #245, #169, #33 ) ;
#284 = MECHANICAL_CONTEXT ( 'NONE', #165, 'mechanical' ) ;
#285 = VERTEX_POINT ( 'NONE', #197 ) ;
#286 = ORIENTED_EDGE ( 'NONE', *, *, #227, .F. ) ;
#287 = AXIS2_PLACEMENT_3D ( 'NONE', #217, #174, #85 ) ;
#288 = DIRECTION ( 'NONE',  ( -0.000000000000000000, -0.000000000000000000, -1.000000000000000000 ) ) ;
#289 = DIRECTION ( 'NONE',  ( 0.000000000000000000, 0.000000000000000000, 1.000000000000000000 ) ) ;
#290 = ORIENTED_EDGE ( 'NONE', *, *, #83, .T. ) ;
#291 = PRODUCT_DEFINITION ( 'NEZNÁMÝ', '', #231, #216 ) ;
#292 = CARTESIAN_POINT ( 'NONE',  ( 9.000000000000000000, 1.102182119232617714E-15, 807.0000000000000000 ) ) ;
#293 = DIRECTION ( 'NONE',  ( 1.000000000000000000, 0.000000000000000000, -0.000000000000000000 ) ) ;
#294 = AXIS2_PLACEMENT_3D ( 'NONE', #5, #289, #79 ) ;
#295 = DIRECTION ( 'NONE',  ( -1.000000000000000000, 0.000000000000000000, 0.000000000000000000 ) ) ;
#296 = LOCAL_TIME ( 11, 21, 8.000000000000000000, #199 ) ;
#297 = CARTESIAN_POINT ( 'NONE',  ( 0.000000000000000000, 0.000000000000000000, 0.000000000000000000 ) ) ;
#298 = CARTESIAN_POINT ( 'NONE',  ( 0.000000000000000000, 0.000000000000000000, 7.000000000000000000 ) ) ;
#299 = ADVANCED_FACE ( 'NONE', ( #141 ), #19, .T. ) ;
#300 = PERSON_AND_ORGANIZATION ( #128, #218 ) ;
#301 = PRODUCT_RELATED_PRODUCT_CATEGORY ( 'detail', '', ( #70 ) ) ;
#302 = CARTESIAN_POINT ( 'NONE',  ( 0.000000000000000000, 0.000000000000000000, 0.000000000000000000 ) ) ;
#303 = CALENDAR_DATE ( 2022, 20, 6 ) ;
#304 = DATE_TIME_ROLE ( 'creation_date' ) ;
#305 = CC_DESIGN_DATE_AND_TIME_ASSIGNMENT ( #39, #304, ( #291 ) ) ;
#306 = DIRECTION ( 'NONE',  ( 1.000000000000000000, 0.000000000000000000, 0.000000000000000000 ) ) ;
#307 = ORIENTED_EDGE ( 'NONE', *, *, #119, .F. ) ;
ENDSEC;
END-ISO-10303-21;
