ISO-10303-21;
HEADER;
FILE_DESCRIPTION (( 'STEP AP203' ),
    '1' );
FILE_NAME ('7a66.STEP',
    '2022-06-20T09:21:16',
    ( '' ),
    ( '' ),
    'SwSTEP 2.0',
    'SolidWorks 2019',
    '' );
FILE_SCHEMA (( 'CONFIG_CONTROL_DESIGN' ));
ENDSEC;

DATA;
#1 = ORIENTED_EDGE ( 'NONE', *, *, #191, .T. ) ;
#2 = AXIS2_PLACEMENT_3D ( 'NONE', #284, #286, #28 ) ;
#3 = PERSON_AND_ORGANIZATION_ROLE ( 'classification_officer' ) ;
#4 = ORIENTED_EDGE ( 'NONE', *, *, #125, .T. ) ;
#5 = CARTESIAN_POINT ( 'NONE',  ( 0.000000000000000000, 0.000000000000000000, 7.000000000000000000 ) ) ;
#6 = ORIENTED_EDGE ( 'NONE', *, *, #111, .T. ) ;
#7 = APPROVAL_DATE_TIME ( #97, #294 ) ;
#8 = EDGE_CURVE ( 'NONE', #65, #20, #11, .T. ) ;
#9 = DATE_AND_TIME ( #241, #130 ) ;
#10 = AXIS2_PLACEMENT_3D ( 'NONE', #255, #120, #94 ) ;
#11 = CIRCLE ( 'NONE', #99, 12.00000000000000178 ) ;
#12 = EDGE_CURVE ( 'NONE', #50, #20, #33, .T. ) ;
#13 = TOROIDAL_SURFACE ( 'NONE', #211, 9.199999999999999289, 0.2000000000000000111 ) ;
#14 = PRODUCT_RELATED_PRODUCT_CATEGORY ( 'detail', '', ( #64 ) ) ;
#15 = ORIENTED_EDGE ( 'NONE', *, *, #67, .T. ) ;
#16 = DIRECTION ( 'NONE',  ( 1.000000000000000000, 0.000000000000000000, 0.000000000000000000 ) ) ;
#17 = DESIGN_CONTEXT ( 'detailed design', #83, 'design' ) ;
#18 = EDGE_LOOP ( 'NONE', ( #153, #1 ) ) ;
#19 = LINE ( 'NONE', #72, #257 ) ;
#20 = VERTEX_POINT ( 'NONE', #79 ) ;
#21 = CARTESIAN_POINT ( 'NONE',  ( -9.199999999999999289, 1.126675055215564822E-15, 7.199999999999984190 ) ) ;
#22 = TOROIDAL_SURFACE ( 'NONE', #40, 9.199999999999999289, 0.2000000000000000111 ) ;
#23 = FACE_OUTER_BOUND ( 'NONE', #18, .T. ) ;
#24 = FACE_OUTER_BOUND ( 'NONE', #98, .T. ) ;
#25 = CARTESIAN_POINT ( 'NONE',  ( -9.000000000000000000, 0.000000000000000000, 637.0000000000000000 ) ) ;
#26 = ORIENTED_EDGE ( 'NONE', *, *, #170, .T. ) ;
#27 = PERSON_AND_ORGANIZATION_ROLE ( 'design_supplier' ) ;
#28 = DIRECTION ( 'NONE',  ( 1.000000000000000000, 0.000000000000000000, 0.000000000000000000 ) ) ;
#29 = CIRCLE ( 'NONE', #2, 12.00000000000000178 ) ;
#30 = DIRECTION ( 'NONE',  ( 1.000000000000000000, 0.000000000000000000, 0.000000000000000000 ) ) ;
#31 = PERSON_AND_ORGANIZATION ( #181, #70 ) ;
#32 = AXIS2_PLACEMENT_3D ( 'NONE', #42, #144, #164 ) ;
#33 = LINE ( 'NONE', #131, #140 ) ;
#34 = EDGE_CURVE ( 'NONE', #50, #57, #29, .T. ) ;
#35 = APPLICATION_PROTOCOL_DEFINITION ( 'international standard', 'config_control_design', 1994, #83 ) ;
#36 = CARTESIAN_POINT ( 'NONE',  ( 9.000000000000000000, 1.102182119232617714E-15, 637.0000000000000000 ) ) ;
#37 = PERSON_AND_ORGANIZATION ( #181, #70 ) ;
#38 = ADVANCED_FACE ( 'NONE', ( #24 ), #22, .F. ) ;
#39 = COORDINATED_UNIVERSAL_TIME_OFFSET ( 1, 0, .AHEAD. ) ;
#40 = AXIS2_PLACEMENT_3D ( 'NONE', #202, #123, #151 ) ;
#41 = EDGE_CURVE ( 'NONE', #304, #90, #204, .T. ) ;
#42 = CARTESIAN_POINT ( 'NONE',  ( 9.199999999999999289, 0.000000000000000000, 7.199999999999984190 ) ) ;
#43 = EDGE_LOOP ( 'NONE', ( #15, #300 ) ) ;
#44 = AXIS2_PLACEMENT_3D ( 'NONE', #301, #146, #71 ) ;
#45 = CC_DESIGN_APPROVAL ( #294, ( #47 ) ) ;
#46 = CARTESIAN_POINT ( 'NONE',  ( 0.000000000000000000, 0.000000000000000000, 7.000000000000000000 ) ) ;
#47 = PRODUCT_DEFINITION ( 'NEZNÁMÝ', '', #119, #17 ) ;
#48 = FACE_BOUND ( 'NONE', #247, .T. ) ;
#49 = DIRECTION ( 'NONE',  ( -1.000000000000000000, 1.224646799147353207E-16, 0.000000000000000000 ) ) ;
#50 = VERTEX_POINT ( 'NONE', #74 ) ;
#51 = ADVANCED_FACE ( 'NONE', ( #282 ), #56, .T. ) ;
#52 =( LENGTH_UNIT ( ) NAMED_UNIT ( * ) SI_UNIT ( .MILLI., .METRE. ) );
#53 = CC_DESIGN_APPROVAL ( #259, ( #268 ) ) ;
#54 = DIRECTION ( 'NONE',  ( 0.000000000000000000, 0.000000000000000000, 1.000000000000000000 ) ) ;
#55 = DIRECTION ( 'NONE',  ( -1.000000000000000000, 0.000000000000000000, 0.000000000000000000 ) ) ;
#56 = CYLINDRICAL_SURFACE ( 'NONE', #152, 12.00000000000000178 ) ;
#57 = VERTEX_POINT ( 'NONE', #77 ) ;
#58 = CARTESIAN_POINT ( 'NONE',  ( 9.000000000000000000, 1.102182119232617714E-15, 7.199999999999984190 ) ) ;
#59 = CYLINDRICAL_SURFACE ( 'NONE', #106, 12.00000000000000178 ) ;
#60 = VECTOR ( 'NONE', #303, 1000.000000000000000 ) ;
#61 = CC_DESIGN_PERSON_AND_ORGANIZATION_ASSIGNMENT ( #218, #3, ( #268 ) ) ;
#62 = LOCAL_TIME ( 11, 21, 16.00000000000000000, #203 ) ;
#63 = CARTESIAN_POINT ( 'NONE',  ( -9.000000000000000000, 0.000000000000000000, 7.199999999999984190 ) ) ;
#64 = PRODUCT ( '7a66', '7a66', '', ( #154 ) ) ;
#65 = VERTEX_POINT ( 'NONE', #147 ) ;
#66 = DIRECTION ( 'NONE',  ( 0.000000000000000000, 0.000000000000000000, 1.000000000000000000 ) ) ;
#67 = EDGE_CURVE ( 'NONE', #90, #304, #244, .T. ) ;
#68 = DIRECTION ( 'NONE',  ( 0.000000000000000000, 0.000000000000000000, 1.000000000000000000 ) ) ;
#69 = ORIENTED_EDGE ( 'NONE', *, *, #125, .F. ) ;
#70 = ORGANIZATION ( 'NEURÈENÝ', 'NEURÈENÝ', '' ) ;
#71 = DIRECTION ( 'NONE',  ( -1.000000000000000000, 0.000000000000000000, 0.000000000000000000 ) ) ;
#72 = CARTESIAN_POINT ( 'NONE',  ( 9.000000000000000000, 1.102182119232617714E-15, 637.0000000000000000 ) ) ;
#73 = CC_DESIGN_DATE_AND_TIME_ASSIGNMENT ( #109, #157, ( #268 ) ) ;
#74 = CARTESIAN_POINT ( 'NONE',  ( -12.00000000000000178, 0.000000000000000000, 7.000000000000000000 ) ) ;
#75 = PERSON_AND_ORGANIZATION ( #181, #70 ) ;
#76 = PRODUCT_DEFINITION_SHAPE ( 'NONE', 'NONE',  #47 ) ;
#77 = CARTESIAN_POINT ( 'NONE',  ( 12.00000000000000178, 1.469576158976824144E-15, 7.000000000000000000 ) ) ;
#78 = PERSON_AND_ORGANIZATION_ROLE ( 'creator' ) ;
#79 = CARTESIAN_POINT ( 'NONE',  ( -12.00000000000000178, 0.000000000000000000, 0.000000000000000000 ) ) ;
#80 = ORIENTED_EDGE ( 'NONE', *, *, #156, .F. ) ;
#81 = EDGE_CURVE ( 'NONE', #90, #159, #126, .T. ) ;
#82 = PERSON_AND_ORGANIZATION ( #181, #70 ) ;
#83 = APPLICATION_CONTEXT ( 'configuration controlled 3d designs of mechanical parts and assemblies' ) ;
#84 = COORDINATED_UNIVERSAL_TIME_OFFSET ( 1, 0, .AHEAD. ) ;
#85 = AXIS2_PLACEMENT_3D ( 'NONE', #215, #214, #96 ) ;
#86 = CC_DESIGN_PERSON_AND_ORGANIZATION_ASSIGNMENT ( #75, #128, ( #64 ) ) ;
#87 = DIRECTION ( 'NONE',  ( 1.000000000000000000, 0.000000000000000000, -0.000000000000000000 ) ) ;
#88 = AXIS2_PLACEMENT_3D ( 'NONE', #252, #66, #238 ) ;
#89 = PLANE ( 'NONE',  #88 ) ;
#90 = VERTEX_POINT ( 'NONE', #25 ) ;
#91 = EDGE_CURVE ( 'NONE', #57, #65, #212, .T. ) ;
#92 = DIRECTION ( 'NONE',  ( 0.000000000000000000, 0.000000000000000000, 1.000000000000000000 ) ) ;
#93 = ORIENTED_EDGE ( 'NONE', *, *, #41, .F. ) ;
#94 = DIRECTION ( 'NONE',  ( 1.000000000000000000, 0.000000000000000000, 0.000000000000000000 ) ) ;
#95 = ORIENTED_EDGE ( 'NONE', *, *, #231, .F. ) ;
#96 = DIRECTION ( 'NONE',  ( 1.000000000000000000, 0.000000000000000000, -0.000000000000000000 ) ) ;
#97 = DATE_AND_TIME ( #149, #148 ) ;
#98 = EDGE_LOOP ( 'NONE', ( #167, #115, #69, #193 ) ) ;
#99 = AXIS2_PLACEMENT_3D ( 'NONE', #242, #100, #173 ) ;
#100 = DIRECTION ( 'NONE',  ( 0.000000000000000000, 0.000000000000000000, 1.000000000000000000 ) ) ;
#101 = PERSON_AND_ORGANIZATION_ROLE ( 'creator' ) ;
#102 = ORIENTED_EDGE ( 'NONE', *, *, #156, .T. ) ;
#103 = EDGE_CURVE ( 'NONE', #159, #184, #104, .T. ) ;
#104 = CIRCLE ( 'NONE', #272, 0.2000000000000005107 ) ;
#105 = APPROVAL_DATE_TIME ( #9, #237 ) ;
#106 = AXIS2_PLACEMENT_3D ( 'NONE', #5, #199, #55 ) ;
#107 = AXIS2_PLACEMENT_3D ( 'NONE', #265, #239, #30 ) ;
#108 = ADVANCED_FACE ( 'NONE', ( #145 ), #142, .T. ) ;
#109 = DATE_AND_TIME ( #208, #177 ) ;
#110 = FACE_OUTER_BOUND ( 'NONE', #233, .T. ) ;
#111 = EDGE_CURVE ( 'NONE', #159, #280, #292, .T. ) ;
#112 = ORIENTED_EDGE ( 'NONE', *, *, #170, .F. ) ;
#113 = DIRECTION ( 'NONE',  ( -0.000000000000000000, -0.000000000000000000, -1.000000000000000000 ) ) ;
#114 = DIRECTION ( 'NONE',  ( -0.000000000000000000, -0.000000000000000000, -1.000000000000000000 ) ) ;
#115 = ORIENTED_EDGE ( 'NONE', *, *, #103, .T. ) ;
#116 = CC_DESIGN_PERSON_AND_ORGANIZATION_ASSIGNMENT ( #171, #27, ( #119 ) ) ;
#117 = PLANE ( 'NONE',  #85 ) ;
#118 = VERTEX_POINT ( 'NONE', #230 ) ;
#119 = PRODUCT_DEFINITION_FORMATION_WITH_SPECIFIED_SOURCE ( 'LIBOVOLNÝ', '', #64, .NOT_KNOWN. ) ;
#120 = DIRECTION ( 'NONE',  ( 0.000000000000000000, 0.000000000000000000, 1.000000000000000000 ) ) ;
#121 = ORIENTED_EDGE ( 'NONE', *, *, #91, .F. ) ;
#122 = SECURITY_CLASSIFICATION_LEVEL ( 'unclassified' ) ;
#123 = DIRECTION ( 'NONE',  ( 0.000000000000000000, 0.000000000000000000, 1.000000000000000000 ) ) ;
#124 = CARTESIAN_POINT ( 'NONE',  ( 0.000000000000000000, 0.000000000000000000, 0.000000000000000000 ) ) ;
#125 = EDGE_CURVE ( 'NONE', #118, #184, #127, .T. ) ;
#126 = LINE ( 'NONE', #220, #60 ) ;
#127 = CIRCLE ( 'NONE', #293, 9.199999999999999289 ) ;
#128 = PERSON_AND_ORGANIZATION_ROLE ( 'design_owner' ) ;
#129 = APPROVAL_PERSON_ORGANIZATION ( #31, #294, #222 ) ;
#130 = LOCAL_TIME ( 11, 21, 16.00000000000000000, #223 ) ;
#131 = CARTESIAN_POINT ( 'NONE',  ( -12.00000000000000178, 0.000000000000000000, 7.000000000000000000 ) ) ;
#132 = APPROVAL_ROLE ( '' ) ;
#133 = DATE_AND_TIME ( #250, #186 ) ;
#134 = CIRCLE ( 'NONE', #240, 12.00000000000000178 ) ;
#135 = APPLICATION_CONTEXT ( 'configuration controlled 3d designs of mechanical parts and assemblies' ) ;
#136 = EDGE_CURVE ( 'NONE', #280, #118, #207, .T. ) ;
#137 = CIRCLE ( 'NONE', #158, 12.00000000000000178 ) ;
#138 = ADVANCED_FACE ( 'NONE', ( #192 ), #89, .T. ) ;
#139 = DIRECTION ( 'NONE',  ( 0.000000000000000000, 0.000000000000000000, 1.000000000000000000 ) ) ;
#140 = VECTOR ( 'NONE', #169, 1000.000000000000000 ) ;
#141 = MANIFOLD_SOLID_BREP ( 'Zaoblit1', #227 ) ;
#142 = CYLINDRICAL_SURFACE ( 'NONE', #44, 9.000000000000000000 ) ;
#143 = CIRCLE ( 'NONE', #194, 9.199999999999999289 ) ;
#144 = DIRECTION ( 'NONE',  ( 0.000000000000000000, -1.000000000000000000, 0.000000000000000000 ) ) ;
#145 = FACE_OUTER_BOUND ( 'NONE', #217, .T. ) ;
#146 = DIRECTION ( 'NONE',  ( -0.000000000000000000, -0.000000000000000000, -1.000000000000000000 ) ) ;
#147 = CARTESIAN_POINT ( 'NONE',  ( 12.00000000000000178, 1.469576158976824144E-15, 0.000000000000000000 ) ) ;
#148 = LOCAL_TIME ( 11, 21, 16.00000000000000000, #84 ) ;
#149 = CALENDAR_DATE ( 2022, 20, 6 ) ;
#150 = DIRECTION ( 'NONE',  ( -0.000000000000000000, -0.000000000000000000, -1.000000000000000000 ) ) ;
#151 = DIRECTION ( 'NONE',  ( 1.000000000000000000, 0.000000000000000000, 0.000000000000000000 ) ) ;
#152 = AXIS2_PLACEMENT_3D ( 'NONE', #261, #150, #172 ) ;
#153 = ORIENTED_EDGE ( 'NONE', *, *, #34, .T. ) ;
#154 = MECHANICAL_CONTEXT ( 'NONE', #135, 'mechanical' ) ;
#155 = APPROVAL_PERSON_ORGANIZATION ( #82, #237, #132 ) ;
#156 = EDGE_CURVE ( 'NONE', #280, #159, #224, .T. ) ;
#157 = DATE_TIME_ROLE ( 'classification_date' ) ;
#158 = AXIS2_PLACEMENT_3D ( 'NONE', #210, #139, #16 ) ;
#159 = VERTEX_POINT ( 'NONE', #63 ) ;
#160 = FACE_OUTER_BOUND ( 'NONE', #306, .T. ) ;
#161 = ORIENTED_EDGE ( 'NONE', *, *, #103, .F. ) ;
#162 = CARTESIAN_POINT ( 'NONE',  ( 0.000000000000000000, 0.000000000000000000, 0.000000000000000000 ) ) ;
#163 = EDGE_LOOP ( 'NONE', ( #219, #296, #229, #266 ) ) ;
#164 = DIRECTION ( 'NONE',  ( 0.000000000000000000, 0.000000000000000000, -1.000000000000000000 ) ) ;
#165 = DIRECTION ( 'NONE',  ( 1.000000000000000000, 0.000000000000000000, 0.000000000000000000 ) ) ;
#166 = CARTESIAN_POINT ( 'NONE',  ( 0.000000000000000000, 0.000000000000000000, 7.199999999999984190 ) ) ;
#167 = ORIENTED_EDGE ( 'NONE', *, *, #111, .F. ) ;
#168 = CALENDAR_DATE ( 2022, 20, 6 ) ;
#169 = DIRECTION ( 'NONE',  ( -0.000000000000000000, -0.000000000000000000, -1.000000000000000000 ) ) ;
#170 = EDGE_CURVE ( 'NONE', #304, #280, #19, .T. ) ;
#171 = PERSON_AND_ORGANIZATION ( #181, #70 ) ;
#172 = DIRECTION ( 'NONE',  ( -1.000000000000000000, 0.000000000000000000, 0.000000000000000000 ) ) ;
#173 = DIRECTION ( 'NONE',  ( 1.000000000000000000, 0.000000000000000000, 0.000000000000000000 ) ) ;
#174 = APPROVAL_STATUS ( 'not_yet_approved' ) ;
#175 = CC_DESIGN_PERSON_AND_ORGANIZATION_ASSIGNMENT ( #205, #78, ( #119 ) ) ;
#176 = DIRECTION ( 'NONE',  ( -0.000000000000000000, -0.000000000000000000, -1.000000000000000000 ) ) ;
#177 = LOCAL_TIME ( 11, 21, 16.00000000000000000, #285 ) ;
#178 = UNCERTAINTY_MEASURE_WITH_UNIT (LENGTH_MEASURE( 1.000000000000000082E-05 ), #52, 'distance_accuracy_value', 'NONE');
#179 = ADVANCED_FACE ( 'NONE', ( #297 ), #189, .F. ) ;
#180 = AXIS2_PLACEMENT_3D ( 'NONE', #188, #176, #264 ) ;
#181 = PERSON ( 'NEURÈENÝ', 'NEURÈENÝ', 'NEURÈENÝ', ('NEURÈENÝ'), ('NEURÈENÝ'), ('NEURÈENÝ') ) ;
#182 = APPROVAL_STATUS ( 'not_yet_approved' ) ;
#183 = CC_DESIGN_DATE_AND_TIME_ASSIGNMENT ( #201, #289, ( #47 ) ) ;
#184 = VERTEX_POINT ( 'NONE', #277 ) ;
#185 = DIRECTION ( 'NONE',  ( 1.224646799147353207E-16, 1.000000000000000000, -0.000000000000000000 ) ) ;
#186 = LOCAL_TIME ( 11, 21, 16.00000000000000000, #39 ) ;
#187 = ORIENTED_EDGE ( 'NONE', *, *, #12, .T. ) ;
#188 = CARTESIAN_POINT ( 'NONE',  ( 0.000000000000000000, 0.000000000000000000, 637.0000000000000000 ) ) ;
#189 = PLANE ( 'NONE',  #232 ) ;
#190 = ORIENTED_EDGE ( 'NONE', *, *, #136, .T. ) ;
#191 = EDGE_CURVE ( 'NONE', #57, #50, #134, .T. ) ;
#192 = FACE_OUTER_BOUND ( 'NONE', #43, .T. ) ;
#193 = ORIENTED_EDGE ( 'NONE', *, *, #136, .F. ) ;
#194 = AXIS2_PLACEMENT_3D ( 'NONE', #46, #234, #258 ) ;
#195 = CARTESIAN_POINT ( 'NONE',  ( 0.000000000000000000, 0.000000000000000000, 7.199999999999984190 ) ) ;
#196 = CARTESIAN_POINT ( 'NONE',  ( 0.000000000000000000, 0.000000000000000000, 637.0000000000000000 ) ) ;
#197 =( NAMED_UNIT ( * ) SI_UNIT ( $, .STERADIAN. ) SOLID_ANGLE_UNIT ( ) );
#198 = EDGE_LOOP ( 'NONE', ( #288, #273 ) ) ;
#199 = DIRECTION ( 'NONE',  ( -0.000000000000000000, -0.000000000000000000, -1.000000000000000000 ) ) ;
#200 = DIRECTION ( 'NONE',  ( 1.000000000000000000, 0.000000000000000000, 0.000000000000000000 ) ) ;
#201 = DATE_AND_TIME ( #168, #62 ) ;
#202 = CARTESIAN_POINT ( 'NONE',  ( 0.000000000000000000, 0.000000000000000000, 7.199999999999984190 ) ) ;
#203 = COORDINATED_UNIVERSAL_TIME_OFFSET ( 1, 0, .AHEAD. ) ;
#204 = CIRCLE ( 'NONE', #206, 9.000000000000000000 ) ;
#205 = PERSON_AND_ORGANIZATION ( #181, #70 ) ;
#206 = AXIS2_PLACEMENT_3D ( 'NONE', #196, #54, #200 ) ;
#207 = CIRCLE ( 'NONE', #32, 0.1999999999999996503 ) ;
#208 = CALENDAR_DATE ( 2022, 20, 6 ) ;
#209 = ORIENTED_EDGE ( 'NONE', *, *, #81, .F. ) ;
#210 = CARTESIAN_POINT ( 'NONE',  ( 0.000000000000000000, 0.000000000000000000, 0.000000000000000000 ) ) ;
#211 = AXIS2_PLACEMENT_3D ( 'NONE', #166, #68, #228 ) ;
#212 = LINE ( 'NONE', #253, #235 ) ;
#213 = EDGE_LOOP ( 'NONE', ( #121, #245, #187, #263 ) ) ;
#214 = DIRECTION ( 'NONE',  ( 0.000000000000000000, 0.000000000000000000, 1.000000000000000000 ) ) ;
#215 = CARTESIAN_POINT ( 'NONE',  ( 0.000000000000000000, 0.000000000000000000, 7.000000000000000000 ) ) ;
#216 = ORIENTED_EDGE ( 'NONE', *, *, #231, .T. ) ;
#217 = EDGE_LOOP ( 'NONE', ( #93, #26, #102, #209 ) ) ;
#218 = PERSON_AND_ORGANIZATION ( #181, #70 ) ;
#219 = ORIENTED_EDGE ( 'NONE', *, *, #191, .F. ) ;
#220 = CARTESIAN_POINT ( 'NONE',  ( -9.000000000000000000, 0.000000000000000000, 637.0000000000000000 ) ) ;
#221 = AXIS2_PLACEMENT_3D ( 'NONE', #195, #92, #281 ) ;
#222 = APPROVAL_ROLE ( '' ) ;
#223 = COORDINATED_UNIVERSAL_TIME_OFFSET ( 1, 0, .AHEAD. ) ;
#224 = CIRCLE ( 'NONE', #10, 9.000000000000000000 ) ;
#225 = APPROVAL_ROLE ( '' ) ;
#226 = ADVANCED_FACE ( 'NONE', ( #160 ), #13, .F. ) ;
#227 = CLOSED_SHELL ( 'NONE', ( #38, #108, #51, #287, #248, #179, #278, #138, #226 ) ) ;
#228 = DIRECTION ( 'NONE',  ( 1.000000000000000000, 0.000000000000000000, 0.000000000000000000 ) ) ;
#229 = ORIENTED_EDGE ( 'NONE', *, *, #8, .T. ) ;
#230 = CARTESIAN_POINT ( 'NONE',  ( 9.199999999999999289, 0.000000000000000000, 6.999999999999992006 ) ) ;
#231 = EDGE_CURVE ( 'NONE', #184, #118, #143, .T. ) ;
#232 = AXIS2_PLACEMENT_3D ( 'NONE', #162, #305, #87 ) ;
#233 = EDGE_LOOP ( 'NONE', ( #112, #251, #254, #6 ) ) ;
#234 = DIRECTION ( 'NONE',  ( -0.000000000000000000, -0.000000000000000000, -1.000000000000000000 ) ) ;
#235 = VECTOR ( 'NONE', #114, 1000.000000000000000 ) ;
#236 = CARTESIAN_POINT ( 'NONE',  ( 0.000000000000000000, 0.000000000000000000, 7.000000000000000000 ) ) ;
#237 = APPROVAL ( #174, 'NEURÈENÝ' ) ;
#238 = DIRECTION ( 'NONE',  ( 1.000000000000000000, 0.000000000000000000, -0.000000000000000000 ) ) ;
#239 = DIRECTION ( 'NONE',  ( 0.000000000000000000, 0.000000000000000000, 1.000000000000000000 ) ) ;
#240 = AXIS2_PLACEMENT_3D ( 'NONE', #236, #279, #165 ) ;
#241 = CALENDAR_DATE ( 2022, 20, 6 ) ;
#242 = CARTESIAN_POINT ( 'NONE',  ( 0.000000000000000000, 0.000000000000000000, 0.000000000000000000 ) ) ;
#243 = FACE_OUTER_BOUND ( 'NONE', #213, .T. ) ;
#244 = CIRCLE ( 'NONE', #107, 9.000000000000000000 ) ;
#245 = ORIENTED_EDGE ( 'NONE', *, *, #34, .F. ) ;
#246 = CC_DESIGN_PERSON_AND_ORGANIZATION_ASSIGNMENT ( #283, #101, ( #47 ) ) ;
#247 = EDGE_LOOP ( 'NONE', ( #4, #216 ) ) ;
#248 = ADVANCED_FACE ( 'NONE', ( #48, #23 ), #117, .T. ) ;
#249 = CC_DESIGN_APPROVAL ( #237, ( #119 ) ) ;
#250 = CALENDAR_DATE ( 2022, 20, 6 ) ;
#251 = ORIENTED_EDGE ( 'NONE', *, *, #67, .F. ) ;
#252 = CARTESIAN_POINT ( 'NONE',  ( 0.000000000000000000, 0.000000000000000000, 637.0000000000000000 ) ) ;
#253 = CARTESIAN_POINT ( 'NONE',  ( 12.00000000000000178, 1.469576158976824144E-15, 7.000000000000000000 ) ) ;
#254 = ORIENTED_EDGE ( 'NONE', *, *, #81, .T. ) ;
#255 = CARTESIAN_POINT ( 'NONE',  ( 0.000000000000000000, 0.000000000000000000, 7.199999999999984190 ) ) ;
#256 = AXIS2_PLACEMENT_3D ( 'NONE', #124, #267, #290 ) ;
#257 = VECTOR ( 'NONE', #113, 1000.000000000000000 ) ;
#258 = DIRECTION ( 'NONE',  ( 1.000000000000000000, 0.000000000000000000, 0.000000000000000000 ) ) ;
#259 = APPROVAL ( #182, 'NEURÈENÝ' ) ;
#260 = DIRECTION ( 'NONE',  ( -0.000000000000000000, -0.000000000000000000, -1.000000000000000000 ) ) ;
#261 = CARTESIAN_POINT ( 'NONE',  ( 0.000000000000000000, 0.000000000000000000, 7.000000000000000000 ) ) ;
#262 = APPLICATION_PROTOCOL_DEFINITION ( 'international standard', 'config_control_design', 1994, #135 ) ;
#263 = ORIENTED_EDGE ( 'NONE', *, *, #270, .T. ) ;
#264 = DIRECTION ( 'NONE',  ( -1.000000000000000000, 0.000000000000000000, 0.000000000000000000 ) ) ;
#265 = CARTESIAN_POINT ( 'NONE',  ( 0.000000000000000000, 0.000000000000000000, 637.0000000000000000 ) ) ;
#266 = ORIENTED_EDGE ( 'NONE', *, *, #12, .F. ) ;
#267 = DIRECTION ( 'NONE',  ( 0.000000000000000000, 0.000000000000000000, 1.000000000000000000 ) ) ;
#268 = SECURITY_CLASSIFICATION ( '', '', #122 ) ;
#269 =( NAMED_UNIT ( * ) PLANE_ANGLE_UNIT ( ) SI_UNIT ( $, .RADIAN. ) );
#270 = EDGE_CURVE ( 'NONE', #20, #65, #137, .T. ) ;
#271 = APPROVAL_DATE_TIME ( #133, #259 ) ;
#272 = AXIS2_PLACEMENT_3D ( 'NONE', #21, #185, #49 ) ;
#273 = ORIENTED_EDGE ( 'NONE', *, *, #8, .F. ) ;
#274 =( GEOMETRIC_REPRESENTATION_CONTEXT ( 3 ) GLOBAL_UNCERTAINTY_ASSIGNED_CONTEXT ( ( #178 ) ) GLOBAL_UNIT_ASSIGNED_CONTEXT ( ( #52, #269, #197 ) ) REPRESENTATION_CONTEXT ( 'NONE', 'WORKASPACE' ) );
#275 = CARTESIAN_POINT ( 'NONE',  ( 0.000000000000000000, 0.000000000000000000, 7.000000000000000000 ) ) ;
#276 = DIRECTION ( 'NONE',  ( 1.000000000000000000, 0.000000000000000000, 0.000000000000000000 ) ) ;
#277 = CARTESIAN_POINT ( 'NONE',  ( -9.199999999999999289, 1.126675055215564822E-15, 6.999999999999992006 ) ) ;
#278 = ADVANCED_FACE ( 'NONE', ( #110 ), #299, .T. ) ;
#279 = DIRECTION ( 'NONE',  ( 0.000000000000000000, 0.000000000000000000, 1.000000000000000000 ) ) ;
#280 = VERTEX_POINT ( 'NONE', #58 ) ;
#281 = DIRECTION ( 'NONE',  ( 1.000000000000000000, 0.000000000000000000, 0.000000000000000000 ) ) ;
#282 = FACE_OUTER_BOUND ( 'NONE', #163, .T. ) ;
#283 = PERSON_AND_ORGANIZATION ( #181, #70 ) ;
#284 = CARTESIAN_POINT ( 'NONE',  ( 0.000000000000000000, 0.000000000000000000, 7.000000000000000000 ) ) ;
#285 = COORDINATED_UNIVERSAL_TIME_OFFSET ( 1, 0, .AHEAD. ) ;
#286 = DIRECTION ( 'NONE',  ( 0.000000000000000000, 0.000000000000000000, 1.000000000000000000 ) ) ;
#287 = ADVANCED_FACE ( 'NONE', ( #243 ), #59, .T. ) ;
#288 = ORIENTED_EDGE ( 'NONE', *, *, #270, .F. ) ;
#289 = DATE_TIME_ROLE ( 'creation_date' ) ;
#290 = DIRECTION ( 'NONE',  ( 1.000000000000000000, 0.000000000000000000, 0.000000000000000000 ) ) ;
#291 = CC_DESIGN_SECURITY_CLASSIFICATION ( #268, ( #119 ) ) ;
#292 = CIRCLE ( 'NONE', #221, 9.000000000000000000 ) ;
#293 = AXIS2_PLACEMENT_3D ( 'NONE', #275, #260, #276 ) ;
#294 = APPROVAL ( #307, 'NEURÈENÝ' ) ;
#295 = SHAPE_DEFINITION_REPRESENTATION ( #76, #302 ) ;
#296 = ORIENTED_EDGE ( 'NONE', *, *, #91, .T. ) ;
#297 = FACE_OUTER_BOUND ( 'NONE', #198, .T. ) ;
#298 = APPROVAL_PERSON_ORGANIZATION ( #37, #259, #225 ) ;
#299 = CYLINDRICAL_SURFACE ( 'NONE', #180, 9.000000000000000000 ) ;
#300 = ORIENTED_EDGE ( 'NONE', *, *, #41, .T. ) ;
#301 = CARTESIAN_POINT ( 'NONE',  ( 0.000000000000000000, 0.000000000000000000, 637.0000000000000000 ) ) ;
#302 = ADVANCED_BREP_SHAPE_REPRESENTATION ( '7a66', ( #141, #256 ), #274 ) ;
#303 = DIRECTION ( 'NONE',  ( -0.000000000000000000, -0.000000000000000000, -1.000000000000000000 ) ) ;
#304 = VERTEX_POINT ( 'NONE', #36 ) ;
#305 = DIRECTION ( 'NONE',  ( 0.000000000000000000, 0.000000000000000000, 1.000000000000000000 ) ) ;
#306 = EDGE_LOOP ( 'NONE', ( #161, #80, #190, #95 ) ) ;
#307 = APPROVAL_STATUS ( 'not_yet_approved' ) ;
ENDSEC;
END-ISO-10303-21;
