ISO-10303-21;
HEADER;
FILE_DESCRIPTION (( 'STEP AP203' ),
    '1' );
FILE_NAME ('b8bb.STEP',
    '2022-06-20T09:46:51',
    ( '' ),
    ( '' ),
    'SwSTEP 2.0',
    'SolidWorks 2019',
    '' );
FILE_SCHEMA (( 'CONFIG_CONTROL_DESIGN' ));
ENDSEC;

DATA;
#1 = EDGE_LOOP ( 'NONE', ( #151, #212, #252, #278 ) ) ;
#2 = CIRCLE ( 'NONE', #214, 7.000000000000000000 ) ;
#3 = PLANE ( 'NONE',  #146 ) ;
#4 = AXIS2_PLACEMENT_3D ( 'NONE', #194, #271, #246 ) ;
#5 = EDGE_CURVE ( 'NONE', #207, #175, #33, .T. ) ;
#6 = LINE ( 'NONE', #28, #170 ) ;
#7 = PLANE ( 'NONE',  #59 ) ;
#8 = CYLINDRICAL_SURFACE ( 'NONE', #106, 7.000000000000000000 ) ;
#9 = ADVANCED_FACE ( 'NONE', ( #306 ), #7, .T. ) ;
#10 = ADVANCED_FACE ( 'NONE', ( #240, #215 ), #3, .T. ) ;
#11 = CC_DESIGN_APPROVAL ( #128, ( #197 ) ) ;
#12 = CARTESIAN_POINT ( 'NONE',  ( 4.099999999999999645, 5.021051876504147385E-16, 5.199999999999982414 ) ) ;
#13 = DIRECTION ( 'NONE',  ( 1.000000000000000000, 0.000000000000000000, 0.000000000000000000 ) ) ;
#14 = EDGE_LOOP ( 'NONE', ( #44, #161 ) ) ;
#15 = AXIS2_PLACEMENT_3D ( 'NONE', #188, #76, #162 ) ;
#16 = DIRECTION ( 'NONE',  ( 1.000000000000000000, 0.000000000000000000, 0.000000000000000000 ) ) ;
#17 = ORIENTED_EDGE ( 'NONE', *, *, #209, .T. ) ;
#18 = APPROVAL_PERSON_ORGANIZATION ( #307, #292, #281 ) ;
#19 =( LENGTH_UNIT ( ) NAMED_UNIT ( * ) SI_UNIT ( .MILLI., .METRE. ) );
#20 = CC_DESIGN_PERSON_AND_ORGANIZATION_ASSIGNMENT ( #79, #58, ( #84 ) ) ;
#21 = CIRCLE ( 'NONE', #35, 0.1999999999999996503 ) ;
#22 = ORIENTED_EDGE ( 'NONE', *, *, #31, .F. ) ;
#23 = APPROVAL_STATUS ( 'not_yet_approved' ) ;
#24 = EDGE_LOOP ( 'NONE', ( #111, #291 ) ) ;
#25 = DIRECTION ( 'NONE',  ( 1.000000000000000000, 0.000000000000000000, 0.000000000000000000 ) ) ;
#26 = ORIENTED_EDGE ( 'NONE', *, *, #192, .T. ) ;
#27 = EDGE_CURVE ( 'NONE', #86, #218, #294, .T. ) ;
#28 = CARTESIAN_POINT ( 'NONE',  ( 4.099999999999999645, 5.021051876504147385E-16, 320.0000000000000000 ) ) ;
#29 = CC_DESIGN_APPROVAL ( #219, ( #84 ) ) ;
#30 = DIRECTION ( 'NONE',  ( 1.000000000000000000, 0.000000000000000000, 0.000000000000000000 ) ) ;
#31 = EDGE_CURVE ( 'NONE', #93, #200, #185, .T. ) ;
#32 = CARTESIAN_POINT ( 'NONE',  ( 0.000000000000000000, 0.000000000000000000, 0.000000000000000000 ) ) ;
#33 = CIRCLE ( 'NONE', #287, 7.000000000000000000 ) ;
#34 = CARTESIAN_POINT ( 'NONE',  ( 0.000000000000000000, 0.000000000000000000, 5.000000000000000000 ) ) ;
#35 = AXIS2_PLACEMENT_3D ( 'NONE', #110, #130, #202 ) ;
#36 = SHAPE_DEFINITION_REPRESENTATION ( #167, #43 ) ;
#37 = CARTESIAN_POINT ( 'NONE',  ( 7.000000000000000000, 8.572527594031473190E-16, 5.000000000000000000 ) ) ;
#38 = EDGE_LOOP ( 'NONE', ( #67, #302 ) ) ;
#39 = CARTESIAN_POINT ( 'NONE',  ( 0.000000000000000000, 0.000000000000000000, 5.000000000000000000 ) ) ;
#40 = FACE_OUTER_BOUND ( 'NONE', #118, .T. ) ;
#41 = APPROVAL_DATE_TIME ( #159, #219 ) ;
#42 = AXIS2_PLACEMENT_3D ( 'NONE', #177, #137, #25 ) ;
#43 = ADVANCED_BREP_SHAPE_REPRESENTATION ( 'b8bb', ( #125, #273 ), #124 ) ;
#44 = ORIENTED_EDGE ( 'NONE', *, *, #27, .T. ) ;
#45 = CIRCLE ( 'NONE', #201, 4.099999999999999645 ) ;
#46 = CALENDAR_DATE ( 2022, 20, 6 ) ;
#47 = AXIS2_PLACEMENT_3D ( 'NONE', #32, #127, #251 ) ;
#48 = ORIENTED_EDGE ( 'NONE', *, *, #156, .F. ) ;
#49 = CARTESIAN_POINT ( 'NONE',  ( 0.000000000000000000, 0.000000000000000000, 0.000000000000000000 ) ) ;
#50 = DATE_AND_TIME ( #98, #69 ) ;
#51 = FACE_OUTER_BOUND ( 'NONE', #172, .T. ) ;
#52 = ORIENTED_EDGE ( 'NONE', *, *, #61, .F. ) ;
#53 = CC_DESIGN_SECURITY_CLASSIFICATION ( #197, ( #84 ) ) ;
#54 = PERSON_AND_ORGANIZATION ( #250, #112 ) ;
#55 = CARTESIAN_POINT ( 'NONE',  ( 7.000000000000000000, 8.572527594031473190E-16, 5.000000000000000000 ) ) ;
#56 = ADVANCED_FACE ( 'NONE', ( #51 ), #139, .T. ) ;
#57 = FACE_OUTER_BOUND ( 'NONE', #300, .T. ) ;
#58 = PERSON_AND_ORGANIZATION_ROLE ( 'design_supplier' ) ;
#59 = AXIS2_PLACEMENT_3D ( 'NONE', #288, #75, #138 ) ;
#60 = AXIS2_PLACEMENT_3D ( 'NONE', #297, #123, #228 ) ;
#61 = EDGE_CURVE ( 'NONE', #203, #169, #6, .T. ) ;
#62 = AXIS2_PLACEMENT_3D ( 'NONE', #102, #241, #191 ) ;
#63 = AXIS2_PLACEMENT_3D ( 'NONE', #296, #168, #85 ) ;
#64 = CARTESIAN_POINT ( 'NONE',  ( -4.299999999999998934, 5.265981236333617484E-16, 4.999999999999991118 ) ) ;
#65 = CARTESIAN_POINT ( 'NONE',  ( -7.000000000000000000, 0.000000000000000000, 5.000000000000000000 ) ) ;
#66 = CC_DESIGN_PERSON_AND_ORGANIZATION_ASSIGNMENT ( #54, #213, ( #197 ) ) ;
#67 = ORIENTED_EDGE ( 'NONE', *, *, #233, .T. ) ;
#68 = COORDINATED_UNIVERSAL_TIME_OFFSET ( 1, 0, .AHEAD. ) ;
#69 = LOCAL_TIME ( 11, 46, 51.00000000000000000, #143 ) ;
#70 = PERSON_AND_ORGANIZATION ( #250, #112 ) ;
#71 = CARTESIAN_POINT ( 'NONE',  ( -4.099999999999999645, 0.000000000000000000, 320.0000000000000000 ) ) ;
#72 = PERSON_AND_ORGANIZATION_ROLE ( 'creator' ) ;
#73 = VERTEX_POINT ( 'NONE', #121 ) ;
#74 = CALENDAR_DATE ( 2022, 20, 6 ) ;
#75 = DIRECTION ( 'NONE',  ( 0.000000000000000000, 0.000000000000000000, 1.000000000000000000 ) ) ;
#76 = DIRECTION ( 'NONE',  ( -0.000000000000000000, -0.000000000000000000, -1.000000000000000000 ) ) ;
#77 = DESIGN_CONTEXT ( 'detailed design', #204, 'design' ) ;
#78 = DIRECTION ( 'NONE',  ( 0.000000000000000000, 0.000000000000000000, 1.000000000000000000 ) ) ;
#79 = PERSON_AND_ORGANIZATION ( #250, #112 ) ;
#80 = DIRECTION ( 'NONE',  ( 1.000000000000000000, 0.000000000000000000, 0.000000000000000000 ) ) ;
#81 = UNCERTAINTY_MEASURE_WITH_UNIT (LENGTH_MEASURE( 1.000000000000000082E-05 ), #19, 'distance_accuracy_value', 'NONE');
#82 = EDGE_CURVE ( 'NONE', #169, #158, #45, .T. ) ;
#83 = CARTESIAN_POINT ( 'NONE',  ( -4.099999999999999645, 0.000000000000000000, 5.199999999999982414 ) ) ;
#84 = PRODUCT_DEFINITION_FORMATION_WITH_SPECIFIED_SOURCE ( 'LIBOVOLNÝ', '', #198, .NOT_KNOWN. ) ;
#85 = DIRECTION ( 'NONE',  ( -1.000000000000000000, 0.000000000000000000, 0.000000000000000000 ) ) ;
#86 = VERTEX_POINT ( 'NONE', #268 ) ;
#87 = CARTESIAN_POINT ( 'NONE',  ( 4.099999999999999645, 5.021051876504147385E-16, 320.0000000000000000 ) ) ;
#88 = ORIENTED_EDGE ( 'NONE', *, *, #279, .F. ) ;
#89 = CIRCLE ( 'NONE', #261, 0.1999999999999996503 ) ;
#90 = CIRCLE ( 'NONE', #232, 4.099999999999999645 ) ;
#91 = FACE_OUTER_BOUND ( 'NONE', #100, .T. ) ;
#92 = ORIENTED_EDGE ( 'NONE', *, *, #192, .F. ) ;
#93 = VERTEX_POINT ( 'NONE', #142 ) ;
#94 = APPLICATION_PROTOCOL_DEFINITION ( 'international standard', 'config_control_design', 1994, #204 ) ;
#95 = DIRECTION ( 'NONE',  ( 0.000000000000000000, 0.000000000000000000, 1.000000000000000000 ) ) ;
#96 = PERSON_AND_ORGANIZATION ( #250, #112 ) ;
#97 = ORIENTED_EDGE ( 'NONE', *, *, #119, .T. ) ;
#98 = CALENDAR_DATE ( 2022, 20, 6 ) ;
#99 = CARTESIAN_POINT ( 'NONE',  ( 0.000000000000000000, 0.000000000000000000, 5.000000000000000000 ) ) ;
#100 = EDGE_LOOP ( 'NONE', ( #52, #136, #97, #17 ) ) ;
#101 = CC_DESIGN_PERSON_AND_ORGANIZATION_ASSIGNMENT ( #236, #72, ( #180 ) ) ;
#102 = CARTESIAN_POINT ( 'NONE',  ( 0.000000000000000000, 0.000000000000000000, 5.000000000000000000 ) ) ;
#103 = PERSON_AND_ORGANIZATION_ROLE ( 'creator' ) ;
#104 = DIRECTION ( 'NONE',  ( 0.000000000000000000, 0.000000000000000000, 1.000000000000000000 ) ) ;
#105 = DIRECTION ( 'NONE',  ( 0.000000000000000000, 0.000000000000000000, 1.000000000000000000 ) ) ;
#106 = AXIS2_PLACEMENT_3D ( 'NONE', #34, #107, #145 ) ;
#107 = DIRECTION ( 'NONE',  ( -0.000000000000000000, -0.000000000000000000, -1.000000000000000000 ) ) ;
#108 = EDGE_LOOP ( 'NONE', ( #48, #255, #237, #155 ) ) ;
#109 = PRODUCT_RELATED_PRODUCT_CATEGORY ( 'detail', '', ( #198 ) ) ;
#110 = CARTESIAN_POINT ( 'NONE',  ( 4.299999999999998934, 0.000000000000000000, 5.199999999999982414 ) ) ;
#111 = ORIENTED_EDGE ( 'NONE', *, *, #31, .T. ) ;
#112 = ORGANIZATION ( 'NEURÈENÝ', 'NEURÈENÝ', '' ) ;
#113 = CARTESIAN_POINT ( 'NONE',  ( 0.000000000000000000, 0.000000000000000000, 320.0000000000000000 ) ) ;
#114 = DIRECTION ( 'NONE',  ( 0.000000000000000000, 0.000000000000000000, 1.000000000000000000 ) ) ;
#115 = DIRECTION ( 'NONE',  ( 0.000000000000000000, 0.000000000000000000, 1.000000000000000000 ) ) ;
#116 = APPROVAL_DATE_TIME ( #152, #292 ) ;
#117 = ORIENTED_EDGE ( 'NONE', *, *, #133, .T. ) ;
#118 = EDGE_LOOP ( 'NONE', ( #182, #239, #259, #92 ) ) ;
#119 = EDGE_CURVE ( 'NONE', #73, #158, #243, .T. ) ;
#120 = CARTESIAN_POINT ( 'NONE',  ( 0.000000000000000000, 0.000000000000000000, 5.199999999999982414 ) ) ;
#121 = CARTESIAN_POINT ( 'NONE',  ( -4.099999999999999645, 0.000000000000000000, 320.0000000000000000 ) ) ;
#122 = FACE_OUTER_BOUND ( 'NONE', #108, .T. ) ;
#123 = DIRECTION ( 'NONE',  ( 0.000000000000000000, 0.000000000000000000, 1.000000000000000000 ) ) ;
#124 =( GEOMETRIC_REPRESENTATION_CONTEXT ( 3 ) GLOBAL_UNCERTAINTY_ASSIGNED_CONTEXT ( ( #81 ) ) GLOBAL_UNIT_ASSIGNED_CONTEXT ( ( #19, #206, #132 ) ) REPRESENTATION_CONTEXT ( 'NONE', 'WORKASPACE' ) );
#125 = MANIFOLD_SOLID_BREP ( 'Zaoblit1', #134 ) ;
#126 = CALENDAR_DATE ( 2022, 20, 6 ) ;
#127 = DIRECTION ( 'NONE',  ( 0.000000000000000000, 0.000000000000000000, 1.000000000000000000 ) ) ;
#128 = APPROVAL ( #299, 'NEURÈENÝ' ) ;
#129 = CARTESIAN_POINT ( 'NONE',  ( 0.000000000000000000, 0.000000000000000000, 5.000000000000000000 ) ) ;
#130 = DIRECTION ( 'NONE',  ( 0.000000000000000000, -1.000000000000000000, 0.000000000000000000 ) ) ;
#131 = LOCAL_TIME ( 11, 46, 51.00000000000000000, #68 ) ;
#132 =( NAMED_UNIT ( * ) SI_UNIT ( $, .STERADIAN. ) SOLID_ANGLE_UNIT ( ) );
#133 = EDGE_CURVE ( 'NONE', #175, #207, #2, .T. ) ;
#134 = CLOSED_SHELL ( 'NONE', ( #290, #248, #165, #56, #10, #196, #267, #9, #282 ) ) ;
#135 = ORIENTED_EDGE ( 'NONE', *, *, #156, .T. ) ;
#136 = ORIENTED_EDGE ( 'NONE', *, *, #233, .F. ) ;
#137 = DIRECTION ( 'NONE',  ( 0.000000000000000000, 0.000000000000000000, 1.000000000000000000 ) ) ;
#138 = DIRECTION ( 'NONE',  ( 1.000000000000000000, 0.000000000000000000, -0.000000000000000000 ) ) ;
#139 = CYLINDRICAL_SURFACE ( 'NONE', #62, 7.000000000000000000 ) ;
#140 = CC_DESIGN_DATE_AND_TIME_ASSIGNMENT ( #50, #189, ( #197 ) ) ;
#141 = PERSON_AND_ORGANIZATION ( #250, #112 ) ;
#142 = CARTESIAN_POINT ( 'NONE',  ( -7.000000000000000000, 0.000000000000000000, 5.000000000000000000 ) ) ;
#143 = COORDINATED_UNIVERSAL_TIME_OFFSET ( 1, 0, .AHEAD. ) ;
#144 = DIRECTION ( 'NONE',  ( -0.000000000000000000, -0.000000000000000000, -1.000000000000000000 ) ) ;
#145 = DIRECTION ( 'NONE',  ( -1.000000000000000000, 0.000000000000000000, 0.000000000000000000 ) ) ;
#146 = AXIS2_PLACEMENT_3D ( 'NONE', #99, #95, #284 ) ;
#147 = DIRECTION ( 'NONE',  ( -0.000000000000000000, -0.000000000000000000, -1.000000000000000000 ) ) ;
#148 = CIRCLE ( 'NONE', #187, 7.000000000000000000 ) ;
#149 = CARTESIAN_POINT ( 'NONE',  ( 0.000000000000000000, 0.000000000000000000, 5.199999999999982414 ) ) ;
#150 = DIRECTION ( 'NONE',  ( -1.000000000000000000, 1.224646799147353454E-16, 0.000000000000000000 ) ) ;
#151 = ORIENTED_EDGE ( 'NONE', *, *, #298, .F. ) ;
#152 = DATE_AND_TIME ( #46, #131 ) ;
#153 = APPROVAL_PERSON_ORGANIZATION ( #96, #219, #183 ) ;
#154 = COORDINATED_UNIVERSAL_TIME_OFFSET ( 1, 0, .AHEAD. ) ;
#155 = ORIENTED_EDGE ( 'NONE', *, *, #224, .F. ) ;
#156 = EDGE_CURVE ( 'NONE', #158, #218, #89, .T. ) ;
#157 = DATE_AND_TIME ( #283, #216 ) ;
#158 = VERTEX_POINT ( 'NONE', #83 ) ;
#159 = DATE_AND_TIME ( #74, #178 ) ;
#160 = AXIS2_PLACEMENT_3D ( 'NONE', #39, #256, #13 ) ;
#161 = ORIENTED_EDGE ( 'NONE', *, *, #224, .T. ) ;
#162 = DIRECTION ( 'NONE',  ( 1.000000000000000000, 0.000000000000000000, 0.000000000000000000 ) ) ;
#163 = DIRECTION ( 'NONE',  ( -0.000000000000000000, -0.000000000000000000, -1.000000000000000000 ) ) ;
#164 = DIRECTION ( 'NONE',  ( -1.000000000000000000, 0.000000000000000000, 0.000000000000000000 ) ) ;
#165 = ADVANCED_FACE ( 'NONE', ( #40 ), #8, .T. ) ;
#166 = CYLINDRICAL_SURFACE ( 'NONE', #63, 4.099999999999999645 ) ;
#167 = PRODUCT_DEFINITION_SHAPE ( 'NONE', 'NONE',  #180 ) ;
#168 = DIRECTION ( 'NONE',  ( -0.000000000000000000, -0.000000000000000000, -1.000000000000000000 ) ) ;
#169 = VERTEX_POINT ( 'NONE', #12 ) ;
#170 = VECTOR ( 'NONE', #163, 1000.000000000000000 ) ;
#171 = FACE_OUTER_BOUND ( 'NONE', #265, .T. ) ;
#172 = EDGE_LOOP ( 'NONE', ( #88, #22, #26, #117 ) ) ;
#173 = AXIS2_PLACEMENT_3D ( 'NONE', #113, #223, #164 ) ;
#174 = DIRECTION ( 'NONE',  ( -0.000000000000000000, -0.000000000000000000, -1.000000000000000000 ) ) ;
#175 = VERTEX_POINT ( 'NONE', #220 ) ;
#176 = MECHANICAL_CONTEXT ( 'NONE', #184, 'mechanical' ) ;
#177 = CARTESIAN_POINT ( 'NONE',  ( 0.000000000000000000, 0.000000000000000000, 5.199999999999982414 ) ) ;
#178 = LOCAL_TIME ( 11, 46, 51.00000000000000000, #286 ) ;
#179 = PERSON_AND_ORGANIZATION_ROLE ( 'design_owner' ) ;
#180 = PRODUCT_DEFINITION ( 'NEZNÁMÝ', '', #84, #77 ) ;
#181 = DIRECTION ( 'NONE',  ( 0.000000000000000000, 0.000000000000000000, 1.000000000000000000 ) ) ;
#182 = ORIENTED_EDGE ( 'NONE', *, *, #226, .F. ) ;
#183 = APPROVAL_ROLE ( '' ) ;
#184 = APPLICATION_CONTEXT ( 'configuration controlled 3d designs of mechanical parts and assemblies' ) ;
#185 = CIRCLE ( 'NONE', #229, 7.000000000000000000 ) ;
#186 = ORIENTED_EDGE ( 'NONE', *, *, #244, .F. ) ;
#187 = AXIS2_PLACEMENT_3D ( 'NONE', #129, #254, #80 ) ;
#188 = CARTESIAN_POINT ( 'NONE',  ( 0.000000000000000000, 0.000000000000000000, 5.000000000000000000 ) ) ;
#189 = DATE_TIME_ROLE ( 'classification_date' ) ;
#190 = CARTESIAN_POINT ( 'NONE',  ( 0.000000000000000000, 0.000000000000000000, 5.000000000000000000 ) ) ;
#191 = DIRECTION ( 'NONE',  ( -1.000000000000000000, 0.000000000000000000, 0.000000000000000000 ) ) ;
#192 = EDGE_CURVE ( 'NONE', #93, #175, #199, .T. ) ;
#193 = AXIS2_PLACEMENT_3D ( 'NONE', #149, #105, #16 ) ;
#194 = CARTESIAN_POINT ( 'NONE',  ( 0.000000000000000000, 0.000000000000000000, 5.199999999999982414 ) ) ;
#195 = CARTESIAN_POINT ( 'NONE',  ( -4.299999999999998934, 5.265981236333617484E-16, 5.199999999999982414 ) ) ;
#196 = ADVANCED_FACE ( 'NONE', ( #171 ), #301, .F. ) ;
#197 = SECURITY_CLASSIFICATION ( '', '', #247 ) ;
#198 = PRODUCT ( 'b8bb', 'b8bb', '', ( #176 ) ) ;
#199 = LINE ( 'NONE', #65, #269 ) ;
#200 = VERTEX_POINT ( 'NONE', #37 ) ;
#201 = AXIS2_PLACEMENT_3D ( 'NONE', #120, #78, #217 ) ;
#202 = DIRECTION ( 'NONE',  ( 0.000000000000000000, 0.000000000000000000, -1.000000000000000000 ) ) ;
#203 = VERTEX_POINT ( 'NONE', #87 ) ;
#204 = APPLICATION_CONTEXT ( 'configuration controlled 3d designs of mechanical parts and assemblies' ) ;
#205 = TOROIDAL_SURFACE ( 'NONE', #42, 4.299999999999998934, 0.2000000000000000111 ) ;
#206 =( NAMED_UNIT ( * ) PLANE_ANGLE_UNIT ( ) SI_UNIT ( $, .RADIAN. ) );
#207 = VERTEX_POINT ( 'NONE', #275 ) ;
#208 = PERSON_AND_ORGANIZATION ( #250, #112 ) ;
#209 = EDGE_CURVE ( 'NONE', #158, #169, #258, .T. ) ;
#210 = CARTESIAN_POINT ( 'NONE',  ( 0.000000000000000000, 0.000000000000000000, 0.000000000000000000 ) ) ;
#211 = DIRECTION ( 'NONE',  ( 1.000000000000000000, 0.000000000000000000, 0.000000000000000000 ) ) ;
#212 = ORIENTED_EDGE ( 'NONE', *, *, #61, .T. ) ;
#213 = PERSON_AND_ORGANIZATION_ROLE ( 'classification_officer' ) ;
#214 = AXIS2_PLACEMENT_3D ( 'NONE', #225, #104, #245 ) ;
#215 = FACE_OUTER_BOUND ( 'NONE', #24, .T. ) ;
#216 = LOCAL_TIME ( 11, 46, 51.00000000000000000, #154 ) ;
#217 = DIRECTION ( 'NONE',  ( 1.000000000000000000, 0.000000000000000000, 0.000000000000000000 ) ) ;
#218 = VERTEX_POINT ( 'NONE', #64 ) ;
#219 = APPROVAL ( #257, 'NEURÈENÝ' ) ;
#220 = CARTESIAN_POINT ( 'NONE',  ( -7.000000000000000000, 0.000000000000000000, 0.000000000000000000 ) ) ;
#221 = VECTOR ( 'NONE', #147, 1000.000000000000000 ) ;
#222 = VECTOR ( 'NONE', #144, 1000.000000000000000 ) ;
#223 = DIRECTION ( 'NONE',  ( -0.000000000000000000, -0.000000000000000000, -1.000000000000000000 ) ) ;
#224 = EDGE_CURVE ( 'NONE', #218, #86, #253, .T. ) ;
#225 = CARTESIAN_POINT ( 'NONE',  ( 0.000000000000000000, 0.000000000000000000, 0.000000000000000000 ) ) ;
#226 = EDGE_CURVE ( 'NONE', #200, #93, #148, .T. ) ;
#227 = APPROVAL_DATE_TIME ( #249, #128 ) ;
#228 = DIRECTION ( 'NONE',  ( 1.000000000000000000, 0.000000000000000000, 0.000000000000000000 ) ) ;
#229 = AXIS2_PLACEMENT_3D ( 'NONE', #190, #266, #30 ) ;
#230 = FACE_OUTER_BOUND ( 'NONE', #1, .T. ) ;
#231 = ORIENTED_EDGE ( 'NONE', *, *, #27, .F. ) ;
#232 = AXIS2_PLACEMENT_3D ( 'NONE', #260, #181, #304 ) ;
#233 = EDGE_CURVE ( 'NONE', #73, #203, #238, .T. ) ;
#234 = APPLICATION_PROTOCOL_DEFINITION ( 'international standard', 'config_control_design', 1994, #184 ) ;
#235 = CC_DESIGN_DATE_AND_TIME_ASSIGNMENT ( #157, #263, ( #180 ) ) ;
#236 = PERSON_AND_ORGANIZATION ( #250, #112 ) ;
#237 = ORIENTED_EDGE ( 'NONE', *, *, #244, .T. ) ;
#238 = CIRCLE ( 'NONE', #60, 4.099999999999999645 ) ;
#239 = ORIENTED_EDGE ( 'NONE', *, *, #279, .T. ) ;
#240 = FACE_BOUND ( 'NONE', #14, .T. ) ;
#241 = DIRECTION ( 'NONE',  ( -0.000000000000000000, -0.000000000000000000, -1.000000000000000000 ) ) ;
#242 = APPROVAL_PERSON_ORGANIZATION ( #141, #128, #272 ) ;
#243 = LINE ( 'NONE', #71, #221 ) ;
#244 = EDGE_CURVE ( 'NONE', #169, #86, #21, .T. ) ;
#245 = DIRECTION ( 'NONE',  ( 1.000000000000000000, 0.000000000000000000, 0.000000000000000000 ) ) ;
#246 = DIRECTION ( 'NONE',  ( 1.000000000000000000, 0.000000000000000000, 0.000000000000000000 ) ) ;
#247 = SECURITY_CLASSIFICATION_LEVEL ( 'unclassified' ) ;
#248 = ADVANCED_FACE ( 'NONE', ( #230 ), #166, .T. ) ;
#249 = DATE_AND_TIME ( #126, #280 ) ;
#250 = PERSON ( 'NEURÈENÝ', 'NEURÈENÝ', 'NEURÈENÝ', ('NEURÈENÝ'), ('NEURÈENÝ'), ('NEURÈENÝ') ) ;
#251 = DIRECTION ( 'NONE',  ( 1.000000000000000000, 0.000000000000000000, -0.000000000000000000 ) ) ;
#252 = ORIENTED_EDGE ( 'NONE', *, *, #82, .T. ) ;
#253 = CIRCLE ( 'NONE', #160, 4.299999999999998934 ) ;
#254 = DIRECTION ( 'NONE',  ( 0.000000000000000000, 0.000000000000000000, 1.000000000000000000 ) ) ;
#255 = ORIENTED_EDGE ( 'NONE', *, *, #82, .F. ) ;
#256 = DIRECTION ( 'NONE',  ( -0.000000000000000000, -0.000000000000000000, -1.000000000000000000 ) ) ;
#257 = APPROVAL_STATUS ( 'not_yet_approved' ) ;
#258 = CIRCLE ( 'NONE', #193, 4.099999999999999645 ) ;
#259 = ORIENTED_EDGE ( 'NONE', *, *, #5, .T. ) ;
#260 = CARTESIAN_POINT ( 'NONE',  ( 0.000000000000000000, 0.000000000000000000, 320.0000000000000000 ) ) ;
#261 = AXIS2_PLACEMENT_3D ( 'NONE', #195, #295, #150 ) ;
#262 = ORIENTED_EDGE ( 'NONE', *, *, #5, .F. ) ;
#263 = DATE_TIME_ROLE ( 'creation_date' ) ;
#264 = CC_DESIGN_PERSON_AND_ORGANIZATION_ASSIGNMENT ( #70, #179, ( #198 ) ) ;
#265 = EDGE_LOOP ( 'NONE', ( #274, #262 ) ) ;
#266 = DIRECTION ( 'NONE',  ( 0.000000000000000000, 0.000000000000000000, 1.000000000000000000 ) ) ;
#267 = ADVANCED_FACE ( 'NONE', ( #91 ), #277, .T. ) ;
#268 = CARTESIAN_POINT ( 'NONE',  ( 4.299999999999998934, 0.000000000000000000, 4.999999999999991118 ) ) ;
#269 = VECTOR ( 'NONE', #174, 1000.000000000000000 ) ;
#270 = LINE ( 'NONE', #55, #222 ) ;
#271 = DIRECTION ( 'NONE',  ( 0.000000000000000000, 0.000000000000000000, 1.000000000000000000 ) ) ;
#272 = APPROVAL_ROLE ( '' ) ;
#273 = AXIS2_PLACEMENT_3D ( 'NONE', #210, #114, #305 ) ;
#274 = ORIENTED_EDGE ( 'NONE', *, *, #133, .F. ) ;
#275 = CARTESIAN_POINT ( 'NONE',  ( 7.000000000000000000, 8.572527594031473190E-16, 0.000000000000000000 ) ) ;
#276 = COORDINATED_UNIVERSAL_TIME_OFFSET ( 1, 0, .AHEAD. ) ;
#277 = CYLINDRICAL_SURFACE ( 'NONE', #173, 4.099999999999999645 ) ;
#278 = ORIENTED_EDGE ( 'NONE', *, *, #119, .F. ) ;
#279 = EDGE_CURVE ( 'NONE', #200, #207, #270, .T. ) ;
#280 = LOCAL_TIME ( 11, 46, 51.00000000000000000, #276 ) ;
#281 = APPROVAL_ROLE ( '' ) ;
#282 = ADVANCED_FACE ( 'NONE', ( #122 ), #303, .F. ) ;
#283 = CALENDAR_DATE ( 2022, 20, 6 ) ;
#284 = DIRECTION ( 'NONE',  ( 1.000000000000000000, 0.000000000000000000, -0.000000000000000000 ) ) ;
#285 = CC_DESIGN_PERSON_AND_ORGANIZATION_ASSIGNMENT ( #208, #103, ( #84 ) ) ;
#286 = COORDINATED_UNIVERSAL_TIME_OFFSET ( 1, 0, .AHEAD. ) ;
#287 = AXIS2_PLACEMENT_3D ( 'NONE', #49, #115, #211 ) ;
#288 = CARTESIAN_POINT ( 'NONE',  ( 0.000000000000000000, 0.000000000000000000, 320.0000000000000000 ) ) ;
#289 = CC_DESIGN_APPROVAL ( #292, ( #180 ) ) ;
#290 = ADVANCED_FACE ( 'NONE', ( #57 ), #205, .F. ) ;
#291 = ORIENTED_EDGE ( 'NONE', *, *, #226, .T. ) ;
#292 = APPROVAL ( #23, 'NEURÈENÝ' ) ;
#293 = ORIENTED_EDGE ( 'NONE', *, *, #209, .F. ) ;
#294 = CIRCLE ( 'NONE', #15, 4.299999999999998934 ) ;
#295 = DIRECTION ( 'NONE',  ( 1.224646799147353207E-16, 1.000000000000000000, -0.000000000000000000 ) ) ;
#296 = CARTESIAN_POINT ( 'NONE',  ( 0.000000000000000000, 0.000000000000000000, 320.0000000000000000 ) ) ;
#297 = CARTESIAN_POINT ( 'NONE',  ( 0.000000000000000000, 0.000000000000000000, 320.0000000000000000 ) ) ;
#298 = EDGE_CURVE ( 'NONE', #203, #73, #90, .T. ) ;
#299 = APPROVAL_STATUS ( 'not_yet_approved' ) ;
#300 = EDGE_LOOP ( 'NONE', ( #293, #135, #231, #186 ) ) ;
#301 = PLANE ( 'NONE',  #47 ) ;
#302 = ORIENTED_EDGE ( 'NONE', *, *, #298, .T. ) ;
#303 = TOROIDAL_SURFACE ( 'NONE', #4, 4.299999999999998934, 0.2000000000000000111 ) ;
#304 = DIRECTION ( 'NONE',  ( 1.000000000000000000, 0.000000000000000000, 0.000000000000000000 ) ) ;
#305 = DIRECTION ( 'NONE',  ( 1.000000000000000000, 0.000000000000000000, 0.000000000000000000 ) ) ;
#306 = FACE_OUTER_BOUND ( 'NONE', #38, .T. ) ;
#307 = PERSON_AND_ORGANIZATION ( #250, #112 ) ;
ENDSEC;
END-ISO-10303-21;
