ISO-10303-21;
HEADER;
FILE_DESCRIPTION (( 'STEP AP203' ),
    '1' );
FILE_NAME ('2f60.STEP',
    '2022-06-20T09:59:05',
    ( '' ),
    ( '' ),
    'SwSTEP 2.0',
    'SolidWorks 2019',
    '' );
FILE_SCHEMA (( 'CONFIG_CONTROL_DESIGN' ));
ENDSEC;

DATA;
#1 = PLANE ( 'NONE',  #57 ) ;
#2 = DIRECTION ( 'NONE',  ( 1.000000000000000000, 0.000000000000000000, 0.000000000000000000 ) ) ;
#3 = ORIENTED_EDGE ( 'NONE', *, *, #280, .F. ) ;
#4 = APPROVAL ( #130, 'NEURÈENÝ' ) ;
#5 = DIRECTION ( 'NONE',  ( 0.000000000000000000, 0.000000000000000000, -1.000000000000000000 ) ) ;
#6 = PRODUCT_DEFINITION_FORMATION_WITH_SPECIFIED_SOURCE ( 'LIBOVOLNÝ', '', #273, .NOT_KNOWN. ) ;
#7 = CARTESIAN_POINT ( 'NONE',  ( 5.000000000000000000, 6.123233995736766282E-16, 0.000000000000000000 ) ) ;
#8 = DIRECTION ( 'NONE',  ( 1.000000000000000000, 0.000000000000000000, -0.000000000000000000 ) ) ;
#9 = ADVANCED_FACE ( 'NONE', ( #270 ), #143, .T. ) ;
#10 = DIRECTION ( 'NONE',  ( 0.000000000000000000, 0.000000000000000000, 1.000000000000000000 ) ) ;
#11 =( NAMED_UNIT ( * ) SI_UNIT ( $, .STERADIAN. ) SOLID_ANGLE_UNIT ( ) );
#12 = CIRCLE ( 'NONE', #92, 5.000000000000000000 ) ;
#13 = APPROVAL_ROLE ( '' ) ;
#14 = PERSON_AND_ORGANIZATION_ROLE ( 'creator' ) ;
#15 = EDGE_CURVE ( 'NONE', #219, #158, #25, .T. ) ;
#16 =( LENGTH_UNIT ( ) NAMED_UNIT ( * ) SI_UNIT ( .MILLI., .METRE. ) );
#17 = ORIENTED_EDGE ( 'NONE', *, *, #249, .F. ) ;
#18 = CALENDAR_DATE ( 2022, 20, 6 ) ;
#19 = APPLICATION_CONTEXT ( 'configuration controlled 3d designs of mechanical parts and assemblies' ) ;
#20 = DIRECTION ( 'NONE',  ( 1.224646799147353207E-16, 1.000000000000000000, -0.000000000000000000 ) ) ;
#21 = DATE_AND_TIME ( #234, #160 ) ;
#22 = SHAPE_DEFINITION_REPRESENTATION ( #174, #45 ) ;
#23 = CC_DESIGN_PERSON_AND_ORGANIZATION_ASSIGNMENT ( #288, #157, ( #6 ) ) ;
#24 = ORGANIZATION ( 'NEURÈENÝ', 'NEURÈENÝ', '' ) ;
#25 = LINE ( 'NONE', #101, #307 ) ;
#26 = CARTESIAN_POINT ( 'NONE',  ( 0.000000000000000000, 0.000000000000000000, 3.199999999999980638 ) ) ;
#27 = DIRECTION ( 'NONE',  ( 0.000000000000000000, 0.000000000000000000, 1.000000000000000000 ) ) ;
#28 = AXIS2_PLACEMENT_3D ( 'NONE', #240, #127, #76 ) ;
#29 = ORIENTED_EDGE ( 'NONE', *, *, #165, .T. ) ;
#30 = DIRECTION ( 'NONE',  ( 0.000000000000000000, 0.000000000000000000, 1.000000000000000000 ) ) ;
#31 = ORIENTED_EDGE ( 'NONE', *, *, #70, .T. ) ;
#32 = VECTOR ( 'NONE', #202, 1000.000000000000000 ) ;
#33 = PLANE ( 'NONE',  #41 ) ;
#34 = FACE_OUTER_BOUND ( 'NONE', #40, .T. ) ;
#35 = CARTESIAN_POINT ( 'NONE',  ( 0.000000000000000000, 0.000000000000000000, 3.000000000000000000 ) ) ;
#36 = AXIS2_PLACEMENT_3D ( 'NONE', #49, #71, #54 ) ;
#37 = DATE_AND_TIME ( #105, #278 ) ;
#38 = PERSON_AND_ORGANIZATION ( #163, #24 ) ;
#39 = ORIENTED_EDGE ( 'NONE', *, *, #66, .F. ) ;
#40 = EDGE_LOOP ( 'NONE', ( #290, #138, #95, #65 ) ) ;
#41 = AXIS2_PLACEMENT_3D ( 'NONE', #229, #64, #8 ) ;
#42 = EDGE_CURVE ( 'NONE', #52, #303, #72, .T. ) ;
#43 = CARTESIAN_POINT ( 'NONE',  ( -5.000000000000000000, 0.000000000000000000, 3.000000000000000000 ) ) ;
#44 = APPLICATION_CONTEXT ( 'configuration controlled 3d designs of mechanical parts and assemblies' ) ;
#45 = ADVANCED_BREP_SHAPE_REPRESENTATION ( '2f60', ( #228, #145 ), #140 ) ;
#46 = CIRCLE ( 'NONE', #131, 2.750000000000000000 ) ;
#47 = DIRECTION ( 'NONE',  ( 0.000000000000000000, -1.000000000000000000, 0.000000000000000000 ) ) ;
#48 = CARTESIAN_POINT ( 'NONE',  ( 5.000000000000000000, 6.123233995736766282E-16, 3.000000000000000000 ) ) ;
#49 = CARTESIAN_POINT ( 'NONE',  ( 0.000000000000000000, 0.000000000000000000, 3.000000000000000000 ) ) ;
#50 = EDGE_CURVE ( 'NONE', #303, #52, #12, .T. ) ;
#51 = AXIS2_PLACEMENT_3D ( 'NONE', #255, #133, #150 ) ;
#52 = VERTEX_POINT ( 'NONE', #7 ) ;
#53 = DIRECTION ( 'NONE',  ( 1.000000000000000000, 0.000000000000000000, 0.000000000000000000 ) ) ;
#54 = DIRECTION ( 'NONE',  ( -1.000000000000000000, 0.000000000000000000, 0.000000000000000000 ) ) ;
#55 = UNCERTAINTY_MEASURE_WITH_UNIT (LENGTH_MEASURE( 1.000000000000000082E-05 ), #16, 'distance_accuracy_value', 'NONE');
#56 = ADVANCED_FACE ( 'NONE', ( #144 ), #1, .T. ) ;
#57 = AXIS2_PLACEMENT_3D ( 'NONE', #123, #245, #97 ) ;
#58 = CARTESIAN_POINT ( 'NONE',  ( -5.000000000000000000, 0.000000000000000000, 0.000000000000000000 ) ) ;
#59 = DATE_AND_TIME ( #277, #213 ) ;
#60 = CC_DESIGN_DATE_AND_TIME_ASSIGNMENT ( #37, #276, ( #254 ) ) ;
#61 = LOCAL_TIME ( 11, 59, 5.000000000000000000, #252 ) ;
#62 =( NAMED_UNIT ( * ) PLANE_ANGLE_UNIT ( ) SI_UNIT ( $, .RADIAN. ) );
#63 = VERTEX_POINT ( 'NONE', #96 ) ;
#64 = DIRECTION ( 'NONE',  ( 0.000000000000000000, 0.000000000000000000, 1.000000000000000000 ) ) ;
#65 = ORIENTED_EDGE ( 'NONE', *, *, #165, .F. ) ;
#66 = EDGE_CURVE ( 'NONE', #285, #52, #122, .T. ) ;
#67 = ORIENTED_EDGE ( 'NONE', *, *, #162, .F. ) ;
#68 = AXIS2_PLACEMENT_3D ( 'NONE', #172, #247, #53 ) ;
#69 = PERSON_AND_ORGANIZATION ( #163, #24 ) ;
#70 = EDGE_CURVE ( 'NONE', #219, #242, #46, .T. ) ;
#71 = DIRECTION ( 'NONE',  ( -0.000000000000000000, -0.000000000000000000, -1.000000000000000000 ) ) ;
#72 = CIRCLE ( 'NONE', #258, 5.000000000000000000 ) ;
#73 = EDGE_LOOP ( 'NONE', ( #134, #171, #283, #201 ) ) ;
#74 = DIRECTION ( 'NONE',  ( 1.000000000000000000, 0.000000000000000000, 0.000000000000000000 ) ) ;
#75 = ORIENTED_EDGE ( 'NONE', *, *, #162, .T. ) ;
#76 = DIRECTION ( 'NONE',  ( 1.000000000000000000, 0.000000000000000000, 0.000000000000000000 ) ) ;
#77 = CIRCLE ( 'NONE', #100, 0.2000000000000000944 ) ;
#78 = SECURITY_CLASSIFICATION ( '', '', #257 ) ;
#79 = EDGE_LOOP ( 'NONE', ( #67, #210, #267, #282 ) ) ;
#80 = FACE_OUTER_BOUND ( 'NONE', #79, .T. ) ;
#81 = DESIGN_CONTEXT ( 'detailed design', #19, 'design' ) ;
#82 = CYLINDRICAL_SURFACE ( 'NONE', #251, 2.750000000000000000 ) ;
#83 = COORDINATED_UNIVERSAL_TIME_OFFSET ( 1, 0, .AHEAD. ) ;
#84 = AXIS2_PLACEMENT_3D ( 'NONE', #301, #10, #248 ) ;
#85 = CC_DESIGN_PERSON_AND_ORGANIZATION_ASSIGNMENT ( #208, #231, ( #273 ) ) ;
#86 = APPROVAL_DATE_TIME ( #183, #170 ) ;
#87 = CARTESIAN_POINT ( 'NONE',  ( -2.750000000000000000, 0.000000000000000000, 3.199999999999980638 ) ) ;
#88 = AXIS2_PLACEMENT_3D ( 'NONE', #237, #117, #215 ) ;
#89 = EDGE_CURVE ( 'NONE', #158, #197, #212, .T. ) ;
#90 = FACE_OUTER_BOUND ( 'NONE', #269, .T. ) ;
#91 = ORIENTED_EDGE ( 'NONE', *, *, #50, .T. ) ;
#92 = AXIS2_PLACEMENT_3D ( 'NONE', #147, #30, #306 ) ;
#93 = APPROVAL_ROLE ( '' ) ;
#94 = EDGE_CURVE ( 'NONE', #217, #285, #199, .T. ) ;
#95 = ORIENTED_EDGE ( 'NONE', *, *, #106, .T. ) ;
#96 = CARTESIAN_POINT ( 'NONE',  ( -2.949999999999999734, 3.612708057484692097E-16, 2.999999999999990674 ) ) ;
#97 = DIRECTION ( 'NONE',  ( 1.000000000000000000, 0.000000000000000000, -0.000000000000000000 ) ) ;
#98 = PLANE ( 'NONE',  #116 ) ;
#99 = ORIENTED_EDGE ( 'NONE', *, *, #139, .T. ) ;
#100 = AXIS2_PLACEMENT_3D ( 'NONE', #223, #20, #102 ) ;
#101 = CARTESIAN_POINT ( 'NONE',  ( 2.750000000000000000, 3.367778697655221012E-16, 503.0000000000000000 ) ) ;
#102 = DIRECTION ( 'NONE',  ( -1.000000000000000000, 1.224646799147353207E-16, 0.000000000000000000 ) ) ;
#103 = FACE_OUTER_BOUND ( 'NONE', #302, .T. ) ;
#104 = DIRECTION ( 'NONE',  ( -0.000000000000000000, -0.000000000000000000, -1.000000000000000000 ) ) ;
#105 = CALENDAR_DATE ( 2022, 20, 6 ) ;
#106 = EDGE_CURVE ( 'NONE', #158, #185, #274, .T. ) ;
#107 = APPROVAL_PERSON_ORGANIZATION ( #261, #125, #93 ) ;
#108 = CC_DESIGN_PERSON_AND_ORGANIZATION_ASSIGNMENT ( #69, #300, ( #78 ) ) ;
#109 = DIRECTION ( 'NONE',  ( 1.000000000000000000, 0.000000000000000000, 0.000000000000000000 ) ) ;
#110 = EDGE_CURVE ( 'NONE', #285, #217, #192, .T. ) ;
#111 = ORIENTED_EDGE ( 'NONE', *, *, #15, .F. ) ;
#112 = CIRCLE ( 'NONE', #289, 2.949999999999999734 ) ;
#113 = PERSON_AND_ORGANIZATION_ROLE ( 'creator' ) ;
#114 = ORIENTED_EDGE ( 'NONE', *, *, #89, .F. ) ;
#115 = CC_DESIGN_PERSON_AND_ORGANIZATION_ASSIGNMENT ( #38, #113, ( #254 ) ) ;
#116 = AXIS2_PLACEMENT_3D ( 'NONE', #295, #148, #200 ) ;
#117 = DIRECTION ( 'NONE',  ( 0.000000000000000000, 0.000000000000000000, 1.000000000000000000 ) ) ;
#118 = ADVANCED_FACE ( 'NONE', ( #90 ), #33, .F. ) ;
#119 = DIRECTION ( 'NONE',  ( 0.000000000000000000, 0.000000000000000000, 1.000000000000000000 ) ) ;
#120 = AXIS2_PLACEMENT_3D ( 'NONE', #263, #47, #5 ) ;
#121 = CARTESIAN_POINT ( 'NONE',  ( 0.000000000000000000, 0.000000000000000000, 0.000000000000000000 ) ) ;
#122 = LINE ( 'NONE', #48, #232 ) ;
#123 = CARTESIAN_POINT ( 'NONE',  ( 0.000000000000000000, 0.000000000000000000, 503.0000000000000000 ) ) ;
#124 = AXIS2_PLACEMENT_3D ( 'NONE', #256, #135, #284 ) ;
#125 = APPROVAL ( #190, 'NEURÈENÝ' ) ;
#126 = LINE ( 'NONE', #209, #137 ) ;
#127 = DIRECTION ( 'NONE',  ( 0.000000000000000000, 0.000000000000000000, 1.000000000000000000 ) ) ;
#128 = CARTESIAN_POINT ( 'NONE',  ( 0.000000000000000000, 0.000000000000000000, 503.0000000000000000 ) ) ;
#129 = DIRECTION ( 'NONE',  ( 0.000000000000000000, 0.000000000000000000, 1.000000000000000000 ) ) ;
#130 = APPROVAL_STATUS ( 'not_yet_approved' ) ;
#131 = AXIS2_PLACEMENT_3D ( 'NONE', #146, #166, #238 ) ;
#132 = PERSON_AND_ORGANIZATION ( #163, #24 ) ;
#133 = DIRECTION ( 'NONE',  ( -0.000000000000000000, -0.000000000000000000, -1.000000000000000000 ) ) ;
#134 = ORIENTED_EDGE ( 'NONE', *, *, #110, .F. ) ;
#135 = DIRECTION ( 'NONE',  ( 0.000000000000000000, 0.000000000000000000, 1.000000000000000000 ) ) ;
#136 = EDGE_LOOP ( 'NONE', ( #142, #31 ) ) ;
#137 = VECTOR ( 'NONE', #224, 1000.000000000000000 ) ;
#138 = ORIENTED_EDGE ( 'NONE', *, *, #15, .T. ) ;
#139 = EDGE_CURVE ( 'NONE', #217, #303, #126, .T. ) ;
#140 =( GEOMETRIC_REPRESENTATION_CONTEXT ( 3 ) GLOBAL_UNCERTAINTY_ASSIGNED_CONTEXT ( ( #55 ) ) GLOBAL_UNIT_ASSIGNED_CONTEXT ( ( #16, #62, #11 ) ) REPRESENTATION_CONTEXT ( 'NONE', 'WORKASPACE' ) );
#141 = FACE_BOUND ( 'NONE', #167, .T. ) ;
#142 = ORIENTED_EDGE ( 'NONE', *, *, #179, .T. ) ;
#143 = CYLINDRICAL_SURFACE ( 'NONE', #36, 5.000000000000000000 ) ;
#144 = FACE_OUTER_BOUND ( 'NONE', #136, .T. ) ;
#145 = AXIS2_PLACEMENT_3D ( 'NONE', #151, #129, #109 ) ;
#146 = CARTESIAN_POINT ( 'NONE',  ( 0.000000000000000000, 0.000000000000000000, 503.0000000000000000 ) ) ;
#147 = CARTESIAN_POINT ( 'NONE',  ( 0.000000000000000000, 0.000000000000000000, 0.000000000000000000 ) ) ;
#148 = DIRECTION ( 'NONE',  ( 0.000000000000000000, 0.000000000000000000, 1.000000000000000000 ) ) ;
#149 = APPROVAL_PERSON_ORGANIZATION ( #155, #170, #176 ) ;
#150 = DIRECTION ( 'NONE',  ( 1.000000000000000000, 0.000000000000000000, 0.000000000000000000 ) ) ;
#151 = CARTESIAN_POINT ( 'NONE',  ( 0.000000000000000000, 0.000000000000000000, 0.000000000000000000 ) ) ;
#152 = TOROIDAL_SURFACE ( 'NONE', #241, 2.949999999999999734, 0.2000000000000000111 ) ;
#153 = DIRECTION ( 'NONE',  ( -0.000000000000000000, -0.000000000000000000, -1.000000000000000000 ) ) ;
#154 = CARTESIAN_POINT ( 'NONE',  ( 2.949999999999999734, 0.000000000000000000, 2.999999999999990674 ) ) ;
#155 = PERSON_AND_ORGANIZATION ( #163, #24 ) ;
#156 = EDGE_LOOP ( 'NONE', ( #111, #230, #29, #169 ) ) ;
#157 = PERSON_AND_ORGANIZATION_ROLE ( 'design_supplier' ) ;
#158 = VERTEX_POINT ( 'NONE', #181 ) ;
#159 = CLOSED_SHELL ( 'NONE', ( #264, #189, #275, #9, #239, #118, #226, #56, #244 ) ) ;
#160 = LOCAL_TIME ( 11, 59, 5.000000000000000000, #214 ) ;
#161 = APPROVAL_DATE_TIME ( #184, #125 ) ;
#162 = EDGE_CURVE ( 'NONE', #185, #63, #77, .T. ) ;
#163 = PERSON ( 'NEURÈENÝ', 'NEURÈENÝ', 'NEURÈENÝ', ('NEURÈENÝ'), ('NEURÈENÝ'), ('NEURÈENÝ') ) ;
#164 = DATE_TIME_ROLE ( 'classification_date' ) ;
#165 = EDGE_CURVE ( 'NONE', #242, #185, #272, .T. ) ;
#166 = DIRECTION ( 'NONE',  ( 0.000000000000000000, 0.000000000000000000, 1.000000000000000000 ) ) ;
#167 = EDGE_LOOP ( 'NONE', ( #196, #259 ) ) ;
#168 = ORIENTED_EDGE ( 'NONE', *, *, #50, .F. ) ;
#169 = ORIENTED_EDGE ( 'NONE', *, *, #249, .T. ) ;
#170 = APPROVAL ( #225, 'NEURÈENÝ' ) ;
#171 = ORIENTED_EDGE ( 'NONE', *, *, #66, .T. ) ;
#172 = CARTESIAN_POINT ( 'NONE',  ( 0.000000000000000000, 0.000000000000000000, 3.199999999999980638 ) ) ;
#173 = CC_DESIGN_DATE_AND_TIME_ASSIGNMENT ( #21, #164, ( #78 ) ) ;
#174 = PRODUCT_DEFINITION_SHAPE ( 'NONE', 'NONE',  #254 ) ;
#175 = PERSON_AND_ORGANIZATION ( #163, #24 ) ;
#176 = APPROVAL_ROLE ( '' ) ;
#177 = COORDINATED_UNIVERSAL_TIME_OFFSET ( 1, 0, .AHEAD. ) ;
#178 = MECHANICAL_CONTEXT ( 'NONE', #44, 'mechanical' ) ;
#179 = EDGE_CURVE ( 'NONE', #242, #219, #216, .T. ) ;
#180 = APPROVAL_PERSON_ORGANIZATION ( #175, #4, #13 ) ;
#181 = CARTESIAN_POINT ( 'NONE',  ( 2.750000000000000000, 3.367778697655221012E-16, 3.199999999999980638 ) ) ;
#182 = EDGE_LOOP ( 'NONE', ( #294, #243 ) ) ;
#183 = DATE_AND_TIME ( #18, #61 ) ;
#184 = DATE_AND_TIME ( #233, #286 ) ;
#185 = VERTEX_POINT ( 'NONE', #87 ) ;
#186 = CC_DESIGN_APPROVAL ( #125, ( #78 ) ) ;
#187 = DIRECTION ( 'NONE',  ( -0.000000000000000000, -0.000000000000000000, -1.000000000000000000 ) ) ;
#188 = PRODUCT_RELATED_PRODUCT_CATEGORY ( 'detail', '', ( #273 ) ) ;
#189 = ADVANCED_FACE ( 'NONE', ( #34 ), #82, .T. ) ;
#190 = APPROVAL_STATUS ( 'not_yet_approved' ) ;
#191 = FACE_OUTER_BOUND ( 'NONE', #182, .T. ) ;
#192 = CIRCLE ( 'NONE', #124, 5.000000000000000000 ) ;
#193 = EDGE_LOOP ( 'NONE', ( #39, #265, #99, #91 ) ) ;
#194 = DIRECTION ( 'NONE',  ( 0.000000000000000000, 0.000000000000000000, 1.000000000000000000 ) ) ;
#195 = CYLINDRICAL_SURFACE ( 'NONE', #246, 5.000000000000000000 ) ;
#196 = ORIENTED_EDGE ( 'NONE', *, *, #280, .T. ) ;
#197 = VERTEX_POINT ( 'NONE', #154 ) ;
#198 = CIRCLE ( 'NONE', #51, 2.949999999999999734 ) ;
#199 = CIRCLE ( 'NONE', #88, 5.000000000000000000 ) ;
#200 = DIRECTION ( 'NONE',  ( 1.000000000000000000, 0.000000000000000000, -0.000000000000000000 ) ) ;
#201 = ORIENTED_EDGE ( 'NONE', *, *, #139, .F. ) ;
#202 = DIRECTION ( 'NONE',  ( -0.000000000000000000, -0.000000000000000000, -1.000000000000000000 ) ) ;
#203 = DIRECTION ( 'NONE',  ( -1.000000000000000000, 0.000000000000000000, 0.000000000000000000 ) ) ;
#204 = CIRCLE ( 'NONE', #68, 2.750000000000000000 ) ;
#205 = CC_DESIGN_APPROVAL ( #4, ( #6 ) ) ;
#206 = DIRECTION ( 'NONE',  ( -0.000000000000000000, -0.000000000000000000, -1.000000000000000000 ) ) ;
#207 = DIRECTION ( 'NONE',  ( 1.000000000000000000, 0.000000000000000000, 0.000000000000000000 ) ) ;
#208 = PERSON_AND_ORGANIZATION ( #163, #24 ) ;
#209 = CARTESIAN_POINT ( 'NONE',  ( -5.000000000000000000, 0.000000000000000000, 3.000000000000000000 ) ) ;
#210 = ORIENTED_EDGE ( 'NONE', *, *, #106, .F. ) ;
#211 = COORDINATED_UNIVERSAL_TIME_OFFSET ( 1, 0, .AHEAD. ) ;
#212 = CIRCLE ( 'NONE', #120, 0.2000000000000000944 ) ;
#213 = LOCAL_TIME ( 11, 59, 5.000000000000000000, #177 ) ;
#214 = COORDINATED_UNIVERSAL_TIME_OFFSET ( 1, 0, .AHEAD. ) ;
#215 = DIRECTION ( 'NONE',  ( 1.000000000000000000, 0.000000000000000000, 0.000000000000000000 ) ) ;
#216 = CIRCLE ( 'NONE', #84, 2.750000000000000000 ) ;
#217 = VERTEX_POINT ( 'NONE', #43 ) ;
#218 = FACE_OUTER_BOUND ( 'NONE', #73, .T. ) ;
#219 = VERTEX_POINT ( 'NONE', #253 ) ;
#220 = CARTESIAN_POINT ( 'NONE',  ( 0.000000000000000000, 0.000000000000000000, 3.000000000000000000 ) ) ;
#221 = ORIENTED_EDGE ( 'NONE', *, *, #42, .F. ) ;
#222 = DIRECTION ( 'NONE',  ( 1.000000000000000000, 0.000000000000000000, 0.000000000000000000 ) ) ;
#223 = CARTESIAN_POINT ( 'NONE',  ( -2.949999999999999734, 3.612708057484692097E-16, 3.199999999999980638 ) ) ;
#224 = DIRECTION ( 'NONE',  ( -0.000000000000000000, -0.000000000000000000, -1.000000000000000000 ) ) ;
#225 = APPROVAL_STATUS ( 'not_yet_approved' ) ;
#226 = ADVANCED_FACE ( 'NONE', ( #287 ), #236, .T. ) ;
#227 = APPLICATION_PROTOCOL_DEFINITION ( 'international standard', 'config_control_design', 1994, #19 ) ;
#228 = MANIFOLD_SOLID_BREP ( 'Zaoblit1', #159 ) ;
#229 = CARTESIAN_POINT ( 'NONE',  ( 0.000000000000000000, 0.000000000000000000, 0.000000000000000000 ) ) ;
#230 = ORIENTED_EDGE ( 'NONE', *, *, #179, .F. ) ;
#231 = PERSON_AND_ORGANIZATION_ROLE ( 'design_owner' ) ;
#232 = VECTOR ( 'NONE', #291, 1000.000000000000000 ) ;
#233 = CALENDAR_DATE ( 2022, 20, 6 ) ;
#234 = CALENDAR_DATE ( 2022, 20, 6 ) ;
#235 = CC_DESIGN_APPROVAL ( #170, ( #254 ) ) ;
#236 = CYLINDRICAL_SURFACE ( 'NONE', #299, 2.750000000000000000 ) ;
#237 = CARTESIAN_POINT ( 'NONE',  ( 0.000000000000000000, 0.000000000000000000, 3.000000000000000000 ) ) ;
#238 = DIRECTION ( 'NONE',  ( 1.000000000000000000, 0.000000000000000000, 0.000000000000000000 ) ) ;
#239 = ADVANCED_FACE ( 'NONE', ( #141, #191 ), #98, .T. ) ;
#240 = CARTESIAN_POINT ( 'NONE',  ( 0.000000000000000000, 0.000000000000000000, 3.199999999999980638 ) ) ;
#241 = AXIS2_PLACEMENT_3D ( 'NONE', #268, #27, #2 ) ;
#242 = VERTEX_POINT ( 'NONE', #266 ) ;
#243 = ORIENTED_EDGE ( 'NONE', *, *, #110, .T. ) ;
#244 = ADVANCED_FACE ( 'NONE', ( #80 ), #293, .F. ) ;
#245 = DIRECTION ( 'NONE',  ( 0.000000000000000000, 0.000000000000000000, 1.000000000000000000 ) ) ;
#246 = AXIS2_PLACEMENT_3D ( 'NONE', #220, #206, #203 ) ;
#247 = DIRECTION ( 'NONE',  ( 0.000000000000000000, 0.000000000000000000, 1.000000000000000000 ) ) ;
#248 = DIRECTION ( 'NONE',  ( 1.000000000000000000, 0.000000000000000000, 0.000000000000000000 ) ) ;
#249 = EDGE_CURVE ( 'NONE', #185, #158, #204, .T. ) ;
#250 = APPROVAL_DATE_TIME ( #59, #4 ) ;
#251 = AXIS2_PLACEMENT_3D ( 'NONE', #128, #104, #281 ) ;
#252 = COORDINATED_UNIVERSAL_TIME_OFFSET ( 1, 0, .AHEAD. ) ;
#253 = CARTESIAN_POINT ( 'NONE',  ( 2.750000000000000000, 3.367778697655221012E-16, 503.0000000000000000 ) ) ;
#254 = PRODUCT_DEFINITION ( 'NEZNÁMÝ', '', #6, #81 ) ;
#255 = CARTESIAN_POINT ( 'NONE',  ( 0.000000000000000000, 0.000000000000000000, 3.000000000000000000 ) ) ;
#256 = CARTESIAN_POINT ( 'NONE',  ( 0.000000000000000000, 0.000000000000000000, 3.000000000000000000 ) ) ;
#257 = SECURITY_CLASSIFICATION_LEVEL ( 'unclassified' ) ;
#258 = AXIS2_PLACEMENT_3D ( 'NONE', #121, #194, #222 ) ;
#259 = ORIENTED_EDGE ( 'NONE', *, *, #304, .T. ) ;
#260 = CARTESIAN_POINT ( 'NONE',  ( 0.000000000000000000, 0.000000000000000000, 503.0000000000000000 ) ) ;
#261 = PERSON_AND_ORGANIZATION ( #163, #24 ) ;
#262 = AXIS2_PLACEMENT_3D ( 'NONE', #26, #119, #74 ) ;
#263 = CARTESIAN_POINT ( 'NONE',  ( 2.949999999999999734, 0.000000000000000000, 3.199999999999980638 ) ) ;
#264 = ADVANCED_FACE ( 'NONE', ( #103 ), #152, .F. ) ;
#265 = ORIENTED_EDGE ( 'NONE', *, *, #94, .F. ) ;
#266 = CARTESIAN_POINT ( 'NONE',  ( -2.750000000000000000, 0.000000000000000000, 503.0000000000000000 ) ) ;
#267 = ORIENTED_EDGE ( 'NONE', *, *, #89, .T. ) ;
#268 = CARTESIAN_POINT ( 'NONE',  ( 0.000000000000000000, 0.000000000000000000, 3.199999999999980638 ) ) ;
#269 = EDGE_LOOP ( 'NONE', ( #168, #221 ) ) ;
#270 = FACE_OUTER_BOUND ( 'NONE', #193, .T. ) ;
#271 = CC_DESIGN_PERSON_AND_ORGANIZATION_ASSIGNMENT ( #132, #14, ( #6 ) ) ;
#272 = LINE ( 'NONE', #296, #32 ) ;
#273 = PRODUCT ( '2f60', '2f60', '', ( #178 ) ) ;
#274 = CIRCLE ( 'NONE', #262, 2.750000000000000000 ) ;
#275 = ADVANCED_FACE ( 'NONE', ( #218 ), #195, .T. ) ;
#276 = DATE_TIME_ROLE ( 'creation_date' ) ;
#277 = CALENDAR_DATE ( 2022, 20, 6 ) ;
#278 = LOCAL_TIME ( 11, 59, 5.000000000000000000, #83 ) ;
#279 = CC_DESIGN_SECURITY_CLASSIFICATION ( #78, ( #6 ) ) ;
#280 = EDGE_CURVE ( 'NONE', #197, #63, #198, .T. ) ;
#281 = DIRECTION ( 'NONE',  ( -1.000000000000000000, 0.000000000000000000, 0.000000000000000000 ) ) ;
#282 = ORIENTED_EDGE ( 'NONE', *, *, #304, .F. ) ;
#283 = ORIENTED_EDGE ( 'NONE', *, *, #42, .T. ) ;
#284 = DIRECTION ( 'NONE',  ( 1.000000000000000000, 0.000000000000000000, 0.000000000000000000 ) ) ;
#285 = VERTEX_POINT ( 'NONE', #297 ) ;
#286 = LOCAL_TIME ( 11, 59, 5.000000000000000000, #211 ) ;
#287 = FACE_OUTER_BOUND ( 'NONE', #156, .T. ) ;
#288 = PERSON_AND_ORGANIZATION ( #163, #24 ) ;
#289 = AXIS2_PLACEMENT_3D ( 'NONE', #35, #153, #207 ) ;
#290 = ORIENTED_EDGE ( 'NONE', *, *, #70, .F. ) ;
#291 = DIRECTION ( 'NONE',  ( -0.000000000000000000, -0.000000000000000000, -1.000000000000000000 ) ) ;
#292 = DIRECTION ( 'NONE',  ( -0.000000000000000000, -0.000000000000000000, -1.000000000000000000 ) ) ;
#293 = TOROIDAL_SURFACE ( 'NONE', #28, 2.949999999999999734, 0.2000000000000000111 ) ;
#294 = ORIENTED_EDGE ( 'NONE', *, *, #94, .T. ) ;
#295 = CARTESIAN_POINT ( 'NONE',  ( 0.000000000000000000, 0.000000000000000000, 3.000000000000000000 ) ) ;
#296 = CARTESIAN_POINT ( 'NONE',  ( -2.750000000000000000, 0.000000000000000000, 503.0000000000000000 ) ) ;
#297 = CARTESIAN_POINT ( 'NONE',  ( 5.000000000000000000, 6.123233995736766282E-16, 3.000000000000000000 ) ) ;
#298 = APPLICATION_PROTOCOL_DEFINITION ( 'international standard', 'config_control_design', 1994, #44 ) ;
#299 = AXIS2_PLACEMENT_3D ( 'NONE', #260, #187, #305 ) ;
#300 = PERSON_AND_ORGANIZATION_ROLE ( 'classification_officer' ) ;
#301 = CARTESIAN_POINT ( 'NONE',  ( 0.000000000000000000, 0.000000000000000000, 503.0000000000000000 ) ) ;
#302 = EDGE_LOOP ( 'NONE', ( #17, #75, #3, #114 ) ) ;
#303 = VERTEX_POINT ( 'NONE', #58 ) ;
#304 = EDGE_CURVE ( 'NONE', #63, #197, #112, .T. ) ;
#305 = DIRECTION ( 'NONE',  ( -1.000000000000000000, 0.000000000000000000, 0.000000000000000000 ) ) ;
#306 = DIRECTION ( 'NONE',  ( 1.000000000000000000, 0.000000000000000000, 0.000000000000000000 ) ) ;
#307 = VECTOR ( 'NONE', #292, 1000.000000000000000 ) ;
ENDSEC;
END-ISO-10303-21;
