ISO-10303-21;
HEADER;
FILE_DESCRIPTION (( 'STEP AP203' ),
    '1' );
FILE_NAME ('b373.STEP',
    '2022-06-20T10:01:31',
    ( '' ),
    ( '' ),
    'SwSTEP 2.0',
    'SolidWorks 2019',
    '' );
FILE_SCHEMA (( 'CONFIG_CONTROL_DESIGN' ));
ENDSEC;

DATA;
#1 = VERTEX_POINT ( 'NONE', #31 ) ;
#2 = EDGE_CURVE ( 'NONE', #289, #79, #164, .T. ) ;
#3 = PERSON_AND_ORGANIZATION_ROLE ( 'classification_officer' ) ;
#4 = ORIENTED_EDGE ( 'NONE', *, *, #301, .F. ) ;
#5 = CC_DESIGN_PERSON_AND_ORGANIZATION_ASSIGNMENT ( #61, #3, ( #131 ) ) ;
#6 = EDGE_LOOP ( 'NONE', ( #260, #279, #66, #175 ) ) ;
#7 = CC_DESIGN_SECURITY_CLASSIFICATION ( #131, ( #89 ) ) ;
#8 = EDGE_CURVE ( 'NONE', #94, #97, #173, .T. ) ;
#9 = DIRECTION ( 'NONE',  ( 1.000000000000000000, 0.000000000000000000, -0.000000000000000000 ) ) ;
#10 = CARTESIAN_POINT ( 'NONE',  ( -5.000000000000000000, 0.000000000000000000, 0.000000000000000000 ) ) ;
#11 = CARTESIAN_POINT ( 'NONE',  ( 2.600000000000000089, 3.184081677783118191E-16, 503.0000000000000000 ) ) ;
#12 = FACE_BOUND ( 'NONE', #52, .T. ) ;
#13 = ADVANCED_FACE ( 'NONE', ( #221 ), #102, .F. ) ;
#14 = CIRCLE ( 'NONE', #18, 5.000000000000000000 ) ;
#15 = CARTESIAN_POINT ( 'NONE',  ( -2.799999999999999822, 3.429011037612588783E-16, 3.199999999999980638 ) ) ;
#16 = FACE_OUTER_BOUND ( 'NONE', #307, .T. ) ;
#17 = CARTESIAN_POINT ( 'NONE',  ( 0.000000000000000000, 0.000000000000000000, 0.000000000000000000 ) ) ;
#18 = AXIS2_PLACEMENT_3D ( 'NONE', #67, #107, #253 ) ;
#19 = DIRECTION ( 'NONE',  ( 1.000000000000000000, 0.000000000000000000, -0.000000000000000000 ) ) ;
#20 = ORIENTED_EDGE ( 'NONE', *, *, #2, .T. ) ;
#21 = EDGE_LOOP ( 'NONE', ( #203, #127, #243, #128 ) ) ;
#22 = AXIS2_PLACEMENT_3D ( 'NONE', #84, #189, #163 ) ;
#23 = DIRECTION ( 'NONE',  ( 0.000000000000000000, 0.000000000000000000, 1.000000000000000000 ) ) ;
#24 = ORGANIZATION ( 'NEURÈENÝ', 'NEURÈENÝ', '' ) ;
#25 = ORIENTED_EDGE ( 'NONE', *, *, #178, .F. ) ;
#26 = APPROVAL ( #156, 'NEURÈENÝ' ) ;
#27 = APPROVAL_STATUS ( 'not_yet_approved' ) ;
#28 = DIRECTION ( 'NONE',  ( -0.000000000000000000, -0.000000000000000000, -1.000000000000000000 ) ) ;
#29 = COORDINATED_UNIVERSAL_TIME_OFFSET ( 1, 0, .AHEAD. ) ;
#30 = ADVANCED_FACE ( 'NONE', ( #73 ), #48, .T. ) ;
#31 = CARTESIAN_POINT ( 'NONE',  ( -5.000000000000000000, 0.000000000000000000, 3.000000000000000000 ) ) ;
#32 = CALENDAR_DATE ( 2022, 20, 6 ) ;
#33 = VECTOR ( 'NONE', #136, 1000.000000000000000 ) ;
#34 = LOCAL_TIME ( 12, 1, 31.00000000000000000, #106 ) ;
#35 = DIRECTION ( 'NONE',  ( 0.000000000000000000, 0.000000000000000000, 1.000000000000000000 ) ) ;
#36 = DATE_AND_TIME ( #98, #181 ) ;
#37 = DIRECTION ( 'NONE',  ( -1.000000000000000000, 0.000000000000000000, 0.000000000000000000 ) ) ;
#38 = AXIS2_PLACEMENT_3D ( 'NONE', #251, #229, #304 ) ;
#39 = CARTESIAN_POINT ( 'NONE',  ( 2.600000000000000089, 3.184081677783118191E-16, 3.199999999999980638 ) ) ;
#40 = CARTESIAN_POINT ( 'NONE',  ( 0.000000000000000000, 0.000000000000000000, 3.199999999999980638 ) ) ;
#41 = CC_DESIGN_PERSON_AND_ORGANIZATION_ASSIGNMENT ( #182, #276, ( #89 ) ) ;
#42 = CC_DESIGN_APPROVAL ( #26, ( #131 ) ) ;
#43 = DIRECTION ( 'NONE',  ( -1.000000000000000000, 0.000000000000000000, 0.000000000000000000 ) ) ;
#44 = ADVANCED_FACE ( 'NONE', ( #12, #298 ), #180, .T. ) ;
#45 = CARTESIAN_POINT ( 'NONE',  ( 2.799999999999999822, 0.000000000000000000, 3.199999999999980638 ) ) ;
#46 = APPROVAL ( #27, 'NEURÈENÝ' ) ;
#47 = AXIS2_PLACEMENT_3D ( 'NONE', #271, #139, #234 ) ;
#48 = CYLINDRICAL_SURFACE ( 'NONE', #242, 5.000000000000000000 ) ;
#49 = PERSON_AND_ORGANIZATION_ROLE ( 'design_owner' ) ;
#50 = EDGE_CURVE ( 'NONE', #1, #265, #53, .T. ) ;
#51 = VERTEX_POINT ( 'NONE', #225 ) ;
#52 = EDGE_LOOP ( 'NONE', ( #124, #20 ) ) ;
#53 = CIRCLE ( 'NONE', #38, 5.000000000000000000 ) ;
#54 = PERSON_AND_ORGANIZATION ( #172, #24 ) ;
#55 = ORIENTED_EDGE ( 'NONE', *, *, #244, .F. ) ;
#56 = ORIENTED_EDGE ( 'NONE', *, *, #2, .F. ) ;
#57 = CALENDAR_DATE ( 2022, 20, 6 ) ;
#58 = CARTESIAN_POINT ( 'NONE',  ( 0.000000000000000000, 0.000000000000000000, 3.199999999999980638 ) ) ;
#59 = AXIS2_PLACEMENT_3D ( 'NONE', #192, #284, #19 ) ;
#60 = CYLINDRICAL_SURFACE ( 'NONE', #47, 5.000000000000000000 ) ;
#61 = PERSON_AND_ORGANIZATION ( #172, #24 ) ;
#62 = EDGE_CURVE ( 'NONE', #1, #82, #232, .T. ) ;
#63 = APPROVAL ( #295, 'NEURÈENÝ' ) ;
#64 = AXIS2_PLACEMENT_3D ( 'NONE', #300, #254, #205 ) ;
#65 = LOCAL_TIME ( 12, 1, 31.00000000000000000, #270 ) ;
#66 = ORIENTED_EDGE ( 'NONE', *, *, #199, .T. ) ;
#67 = CARTESIAN_POINT ( 'NONE',  ( 0.000000000000000000, 0.000000000000000000, 3.000000000000000000 ) ) ;
#68 = DIRECTION ( 'NONE',  ( -0.000000000000000000, -0.000000000000000000, -1.000000000000000000 ) ) ;
#69 = AXIS2_PLACEMENT_3D ( 'NONE', #58, #152, #249 ) ;
#70 = CARTESIAN_POINT ( 'NONE',  ( 0.000000000000000000, 0.000000000000000000, 503.0000000000000000 ) ) ;
#71 = FACE_OUTER_BOUND ( 'NONE', #147, .T. ) ;
#72 = FACE_OUTER_BOUND ( 'NONE', #217, .T. ) ;
#73 = FACE_OUTER_BOUND ( 'NONE', #6, .T. ) ;
#74 = AXIS2_PLACEMENT_3D ( 'NONE', #76, #96, #92 ) ;
#75 = VERTEX_POINT ( 'NONE', #159 ) ;
#76 = CARTESIAN_POINT ( 'NONE',  ( 0.000000000000000000, 0.000000000000000000, 0.000000000000000000 ) ) ;
#77 = PRODUCT_DEFINITION ( 'NEZNÁMÝ', '', #89, #143 ) ;
#78 = ORIENTED_EDGE ( 'NONE', *, *, #301, .T. ) ;
#79 = VERTEX_POINT ( 'NONE', #114 ) ;
#80 = VECTOR ( 'NONE', #132, 1000.000000000000000 ) ;
#81 = SECURITY_CLASSIFICATION_LEVEL ( 'unclassified' ) ;
#82 = VERTEX_POINT ( 'NONE', #10 ) ;
#83 = DATE_AND_TIME ( #32, #104 ) ;
#84 = CARTESIAN_POINT ( 'NONE',  ( 0.000000000000000000, 0.000000000000000000, 0.000000000000000000 ) ) ;
#85 = APPROVAL_DATE_TIME ( #151, #63 ) ;
#86 = EDGE_CURVE ( 'NONE', #94, #269, #258, .T. ) ;
#87 = CIRCLE ( 'NONE', #64, 2.799999999999999822 ) ;
#88 = DIRECTION ( 'NONE',  ( 0.000000000000000000, 0.000000000000000000, 1.000000000000000000 ) ) ;
#89 = PRODUCT_DEFINITION_FORMATION_WITH_SPECIFIED_SOURCE ( 'LIBOVOLNÝ', '', #187, .NOT_KNOWN. ) ;
#90 = DIRECTION ( 'NONE',  ( 0.000000000000000000, 0.000000000000000000, 1.000000000000000000 ) ) ;
#91 = LINE ( 'NONE', #184, #202 ) ;
#92 = DIRECTION ( 'NONE',  ( 1.000000000000000000, 0.000000000000000000, 0.000000000000000000 ) ) ;
#93 = APPLICATION_PROTOCOL_DEFINITION ( 'international standard', 'config_control_design', 1994, #110 ) ;
#94 = VERTEX_POINT ( 'NONE', #11 ) ;
#95 = AXIS2_PLACEMENT_3D ( 'NONE', #235, #23, #166 ) ;
#96 = DIRECTION ( 'NONE',  ( 0.000000000000000000, 0.000000000000000000, 1.000000000000000000 ) ) ;
#97 = VERTEX_POINT ( 'NONE', #39 ) ;
#98 = CALENDAR_DATE ( 2022, 20, 6 ) ;
#99 = ORIENTED_EDGE ( 'NONE', *, *, #285, .T. ) ;
#100 = PERSON_AND_ORGANIZATION ( #172, #24 ) ;
#101 = CC_DESIGN_DATE_AND_TIME_ASSIGNMENT ( #246, #129, ( #77 ) ) ;
#102 = PLANE ( 'NONE',  #201 ) ;
#103 = CLOSED_SHELL ( 'NONE', ( #273, #209, #30, #212, #44, #13, #228, #262, #226 ) ) ;
#104 = LOCAL_TIME ( 12, 1, 31.00000000000000000, #248 ) ;
#105 = ORIENTED_EDGE ( 'NONE', *, *, #86, .T. ) ;
#106 = COORDINATED_UNIVERSAL_TIME_OFFSET ( 1, 0, .AHEAD. ) ;
#107 = DIRECTION ( 'NONE',  ( 0.000000000000000000, 0.000000000000000000, 1.000000000000000000 ) ) ;
#108 = EDGE_CURVE ( 'NONE', #265, #1, #14, .T. ) ;
#109 = APPROVAL_ROLE ( '' ) ;
#110 = APPLICATION_CONTEXT ( 'configuration controlled 3d designs of mechanical parts and assemblies' ) ;
#111 = LINE ( 'NONE', #155, #33 ) ;
#112 = AXIS2_PLACEMENT_3D ( 'NONE', #45, #215, #213 ) ;
#113 = PRODUCT_RELATED_PRODUCT_CATEGORY ( 'detail', '', ( #187 ) ) ;
#114 = CARTESIAN_POINT ( 'NONE',  ( 2.799999999999999822, 0.000000000000000000, 2.999999999999990674 ) ) ;
#115 = AXIS2_PLACEMENT_3D ( 'NONE', #15, #116, #211 ) ;
#116 = DIRECTION ( 'NONE',  ( 1.224646799147353207E-16, 1.000000000000000000, -0.000000000000000000 ) ) ;
#117 = FACE_OUTER_BOUND ( 'NONE', #195, .T. ) ;
#118 = AXIS2_PLACEMENT_3D ( 'NONE', #188, #280, #133 ) ;
#119 = EDGE_CURVE ( 'NONE', #265, #75, #111, .T. ) ;
#120 =( NAMED_UNIT ( * ) SI_UNIT ( $, .STERADIAN. ) SOLID_ANGLE_UNIT ( ) );
#121 = ORIENTED_EDGE ( 'NONE', *, *, #199, .F. ) ;
#122 = UNCERTAINTY_MEASURE_WITH_UNIT (LENGTH_MEASURE( 1.000000000000000082E-05 ), #257, 'distance_accuracy_value', 'NONE');
#123 = APPLICATION_PROTOCOL_DEFINITION ( 'international standard', 'config_control_design', 1994, #230 ) ;
#124 = ORIENTED_EDGE ( 'NONE', *, *, #162, .T. ) ;
#125 = CIRCLE ( 'NONE', #115, 0.2000000000000000944 ) ;
#126 = PERSON_AND_ORGANIZATION_ROLE ( 'creator' ) ;
#127 = ORIENTED_EDGE ( 'NONE', *, *, #157, .F. ) ;
#128 = ORIENTED_EDGE ( 'NONE', *, *, #244, .T. ) ;
#129 = DATE_TIME_ROLE ( 'creation_date' ) ;
#130 = CARTESIAN_POINT ( 'NONE',  ( 2.600000000000000089, 3.184081677783118191E-16, 503.0000000000000000 ) ) ;
#131 = SECURITY_CLASSIFICATION ( '', '', #81 ) ;
#132 = DIRECTION ( 'NONE',  ( -0.000000000000000000, -0.000000000000000000, -1.000000000000000000 ) ) ;
#133 = DIRECTION ( 'NONE',  ( 1.000000000000000000, 0.000000000000000000, -0.000000000000000000 ) ) ;
#134 = EDGE_CURVE ( 'NONE', #269, #51, #91, .T. ) ;
#135 = APPROVAL_DATE_TIME ( #204, #26 ) ;
#136 = DIRECTION ( 'NONE',  ( -0.000000000000000000, -0.000000000000000000, -1.000000000000000000 ) ) ;
#137 = DIRECTION ( 'NONE',  ( 1.000000000000000000, 0.000000000000000000, 0.000000000000000000 ) ) ;
#138 = CIRCLE ( 'NONE', #282, 5.000000000000000000 ) ;
#139 = DIRECTION ( 'NONE',  ( -0.000000000000000000, -0.000000000000000000, -1.000000000000000000 ) ) ;
#140 = CARTESIAN_POINT ( 'NONE',  ( -2.799999999999999822, 3.429011037612589276E-16, 2.999999999999990674 ) ) ;
#141 = CIRCLE ( 'NONE', #22, 5.000000000000000000 ) ;
#142 =( GEOMETRIC_REPRESENTATION_CONTEXT ( 3 ) GLOBAL_UNCERTAINTY_ASSIGNED_CONTEXT ( ( #122 ) ) GLOBAL_UNIT_ASSIGNED_CONTEXT ( ( #257, #305, #120 ) ) REPRESENTATION_CONTEXT ( 'NONE', 'WORKASPACE' ) );
#143 = DESIGN_CONTEXT ( 'detailed design', #230, 'design' ) ;
#144 = ORIENTED_EDGE ( 'NONE', *, *, #62, .T. ) ;
#145 = ORIENTED_EDGE ( 'NONE', *, *, #191, .T. ) ;
#146 = DIRECTION ( 'NONE',  ( 1.000000000000000000, 0.000000000000000000, 0.000000000000000000 ) ) ;
#147 = EDGE_LOOP ( 'NONE', ( #55, #145, #171, #197 ) ) ;
#148 = ORIENTED_EDGE ( 'NONE', *, *, #119, .F. ) ;
#149 = APPROVAL_ROLE ( '' ) ;
#150 = EDGE_LOOP ( 'NONE', ( #148, #263, #144, #78 ) ) ;
#151 = DATE_AND_TIME ( #220, #194 ) ;
#152 = DIRECTION ( 'NONE',  ( 0.000000000000000000, 0.000000000000000000, 1.000000000000000000 ) ) ;
#153 = AXIS2_PLACEMENT_3D ( 'NONE', #261, #239, #190 ) ;
#154 = PERSON_AND_ORGANIZATION ( #172, #24 ) ;
#155 = CARTESIAN_POINT ( 'NONE',  ( 5.000000000000000000, 6.123233995736766282E-16, 3.000000000000000000 ) ) ;
#156 = APPROVAL_STATUS ( 'not_yet_approved' ) ;
#157 = EDGE_CURVE ( 'NONE', #269, #94, #216, .T. ) ;
#158 = AXIS2_PLACEMENT_3D ( 'NONE', #245, #196, #291 ) ;
#159 = CARTESIAN_POINT ( 'NONE',  ( 5.000000000000000000, 6.123233995736766282E-16, 0.000000000000000000 ) ) ;
#160 = ORIENTED_EDGE ( 'NONE', *, *, #8, .T. ) ;
#161 = CARTESIAN_POINT ( 'NONE',  ( 0.000000000000000000, 0.000000000000000000, 503.0000000000000000 ) ) ;
#162 = EDGE_CURVE ( 'NONE', #79, #289, #87, .T. ) ;
#163 = DIRECTION ( 'NONE',  ( 1.000000000000000000, 0.000000000000000000, 0.000000000000000000 ) ) ;
#164 = CIRCLE ( 'NONE', #158, 2.799999999999999822 ) ;
#165 = DIRECTION ( 'NONE',  ( -0.000000000000000000, -0.000000000000000000, -1.000000000000000000 ) ) ;
#166 = DIRECTION ( 'NONE',  ( 1.000000000000000000, 0.000000000000000000, 0.000000000000000000 ) ) ;
#167 = PLANE ( 'NONE',  #59 ) ;
#168 = APPROVAL_PERSON_ORGANIZATION ( #297, #26, #149 ) ;
#169 = CARTESIAN_POINT ( 'NONE',  ( 0.000000000000000000, 0.000000000000000000, 3.000000000000000000 ) ) ;
#170 = PERSON_AND_ORGANIZATION ( #172, #24 ) ;
#171 = ORIENTED_EDGE ( 'NONE', *, *, #162, .F. ) ;
#172 = PERSON ( 'NEURÈENÝ', 'NEURÈENÝ', 'NEURÈENÝ', ('NEURÈENÝ'), ('NEURÈENÝ'), ('NEURÈENÝ') ) ;
#173 = LINE ( 'NONE', #130, #255 ) ;
#174 = APPROVAL_ROLE ( '' ) ;
#175 = ORIENTED_EDGE ( 'NONE', *, *, #62, .F. ) ;
#176 = CC_DESIGN_APPROVAL ( #63, ( #77 ) ) ;
#177 = ORIENTED_EDGE ( 'NONE', *, *, #108, .T. ) ;
#178 = EDGE_CURVE ( 'NONE', #97, #51, #277, .T. ) ;
#179 = FACE_OUTER_BOUND ( 'NONE', #21, .T. ) ;
#180 = PLANE ( 'NONE',  #118 ) ;
#181 = LOCAL_TIME ( 12, 1, 31.00000000000000000, #29 ) ;
#182 = PERSON_AND_ORGANIZATION ( #172, #24 ) ;
#183 = AXIS2_PLACEMENT_3D ( 'NONE', #256, #68, #43 ) ;
#184 = CARTESIAN_POINT ( 'NONE',  ( -2.600000000000000089, 0.000000000000000000, 503.0000000000000000 ) ) ;
#185 = ORIENTED_EDGE ( 'NONE', *, *, #157, .T. ) ;
#186 = SHAPE_DEFINITION_REPRESENTATION ( #233, #299 ) ;
#187 = PRODUCT ( 'b373', 'b373', '', ( #259 ) ) ;
#188 = CARTESIAN_POINT ( 'NONE',  ( 0.000000000000000000, 0.000000000000000000, 3.000000000000000000 ) ) ;
#189 = DIRECTION ( 'NONE',  ( 0.000000000000000000, 0.000000000000000000, 1.000000000000000000 ) ) ;
#190 = DIRECTION ( 'NONE',  ( 1.000000000000000000, 0.000000000000000000, 0.000000000000000000 ) ) ;
#191 = EDGE_CURVE ( 'NONE', #51, #289, #125, .T. ) ;
#192 = CARTESIAN_POINT ( 'NONE',  ( 0.000000000000000000, 0.000000000000000000, 503.0000000000000000 ) ) ;
#193 = AXIS2_PLACEMENT_3D ( 'NONE', #210, #90, #206 ) ;
#194 = LOCAL_TIME ( 12, 1, 31.00000000000000000, #218 ) ;
#195 = EDGE_LOOP ( 'NONE', ( #219, #25, #99, #56 ) ) ;
#196 = DIRECTION ( 'NONE',  ( -0.000000000000000000, -0.000000000000000000, -1.000000000000000000 ) ) ;
#197 = ORIENTED_EDGE ( 'NONE', *, *, #285, .F. ) ;
#198 = PERSON_AND_ORGANIZATION_ROLE ( 'creator' ) ;
#199 = EDGE_CURVE ( 'NONE', #75, #82, #141, .T. ) ;
#200 = DIRECTION ( 'NONE',  ( 0.000000000000000000, 0.000000000000000000, 1.000000000000000000 ) ) ;
#201 = AXIS2_PLACEMENT_3D ( 'NONE', #222, #200, #9 ) ;
#202 = VECTOR ( 'NONE', #278, 1000.000000000000000 ) ;
#203 = ORIENTED_EDGE ( 'NONE', *, *, #8, .F. ) ;
#204 = DATE_AND_TIME ( #252, #34 ) ;
#205 = DIRECTION ( 'NONE',  ( 1.000000000000000000, 0.000000000000000000, 0.000000000000000000 ) ) ;
#206 = DIRECTION ( 'NONE',  ( 1.000000000000000000, 0.000000000000000000, 0.000000000000000000 ) ) ;
#207 = TOROIDAL_SURFACE ( 'NONE', #69, 2.799999999999999822, 0.2000000000000000111 ) ;
#208 = CC_DESIGN_PERSON_AND_ORGANIZATION_ASSIGNMENT ( #170, #49, ( #187 ) ) ;
#209 = ADVANCED_FACE ( 'NONE', ( #16 ), #281, .T. ) ;
#210 = CARTESIAN_POINT ( 'NONE',  ( 0.000000000000000000, 0.000000000000000000, 503.0000000000000000 ) ) ;
#211 = DIRECTION ( 'NONE',  ( -1.000000000000000000, 1.224646799147353207E-16, 0.000000000000000000 ) ) ;
#212 = ADVANCED_FACE ( 'NONE', ( #274 ), #60, .T. ) ;
#213 = DIRECTION ( 'NONE',  ( 0.000000000000000000, 0.000000000000000000, -1.000000000000000000 ) ) ;
#214 = ORIENTED_EDGE ( 'NONE', *, *, #86, .F. ) ;
#215 = DIRECTION ( 'NONE',  ( 0.000000000000000000, -1.000000000000000000, 0.000000000000000000 ) ) ;
#216 = CIRCLE ( 'NONE', #193, 2.600000000000000089 ) ;
#217 = EDGE_LOOP ( 'NONE', ( #185, #105 ) ) ;
#218 = COORDINATED_UNIVERSAL_TIME_OFFSET ( 1, 0, .AHEAD. ) ;
#219 = ORIENTED_EDGE ( 'NONE', *, *, #191, .F. ) ;
#220 = CALENDAR_DATE ( 2022, 20, 6 ) ;
#221 = FACE_OUTER_BOUND ( 'NONE', #294, .T. ) ;
#222 = CARTESIAN_POINT ( 'NONE',  ( 0.000000000000000000, 0.000000000000000000, 0.000000000000000000 ) ) ;
#223 = DATE_TIME_ROLE ( 'classification_date' ) ;
#224 = DIRECTION ( 'NONE',  ( 1.000000000000000000, 0.000000000000000000, 0.000000000000000000 ) ) ;
#225 = CARTESIAN_POINT ( 'NONE',  ( -2.600000000000000089, 0.000000000000000000, 3.199999999999980638 ) ) ;
#226 = ADVANCED_FACE ( 'NONE', ( #117 ), #207, .F. ) ;
#227 = CC_DESIGN_PERSON_AND_ORGANIZATION_ASSIGNMENT ( #154, #126, ( #77 ) ) ;
#228 = ADVANCED_FACE ( 'NONE', ( #179 ), #286, .T. ) ;
#229 = DIRECTION ( 'NONE',  ( 0.000000000000000000, 0.000000000000000000, 1.000000000000000000 ) ) ;
#230 = APPLICATION_CONTEXT ( 'configuration controlled 3d designs of mechanical parts and assemblies' ) ;
#231 = TOROIDAL_SURFACE ( 'NONE', #95, 2.799999999999999822, 0.2000000000000000111 ) ;
#232 = LINE ( 'NONE', #296, #80 ) ;
#233 = PRODUCT_DEFINITION_SHAPE ( 'NONE', 'NONE',  #77 ) ;
#234 = DIRECTION ( 'NONE',  ( -1.000000000000000000, 0.000000000000000000, 0.000000000000000000 ) ) ;
#235 = CARTESIAN_POINT ( 'NONE',  ( 0.000000000000000000, 0.000000000000000000, 3.199999999999980638 ) ) ;
#236 = MANIFOLD_SOLID_BREP ( 'Zaoblit1', #103 ) ;
#237 = DIRECTION ( 'NONE',  ( 0.000000000000000000, 0.000000000000000000, 1.000000000000000000 ) ) ;
#238 = CC_DESIGN_APPROVAL ( #46, ( #89 ) ) ;
#239 = DIRECTION ( 'NONE',  ( 0.000000000000000000, 0.000000000000000000, 1.000000000000000000 ) ) ;
#240 = DIRECTION ( 'NONE',  ( -0.000000000000000000, -0.000000000000000000, -1.000000000000000000 ) ) ;
#241 = ORIENTED_EDGE ( 'NONE', *, *, #50, .T. ) ;
#242 = AXIS2_PLACEMENT_3D ( 'NONE', #169, #240, #37 ) ;
#243 = ORIENTED_EDGE ( 'NONE', *, *, #134, .T. ) ;
#244 = EDGE_CURVE ( 'NONE', #51, #97, #250, .T. ) ;
#245 = CARTESIAN_POINT ( 'NONE',  ( 0.000000000000000000, 0.000000000000000000, 3.000000000000000000 ) ) ;
#246 = DATE_AND_TIME ( #57, #65 ) ;
#247 = ORIENTED_EDGE ( 'NONE', *, *, #178, .T. ) ;
#248 = COORDINATED_UNIVERSAL_TIME_OFFSET ( 1, 0, .AHEAD. ) ;
#249 = DIRECTION ( 'NONE',  ( 1.000000000000000000, 0.000000000000000000, 0.000000000000000000 ) ) ;
#250 = CIRCLE ( 'NONE', #153, 2.600000000000000089 ) ;
#251 = CARTESIAN_POINT ( 'NONE',  ( 0.000000000000000000, 0.000000000000000000, 3.000000000000000000 ) ) ;
#252 = CALENDAR_DATE ( 2022, 20, 6 ) ;
#253 = DIRECTION ( 'NONE',  ( 1.000000000000000000, 0.000000000000000000, 0.000000000000000000 ) ) ;
#254 = DIRECTION ( 'NONE',  ( -0.000000000000000000, -0.000000000000000000, -1.000000000000000000 ) ) ;
#255 = VECTOR ( 'NONE', #28, 1000.000000000000000 ) ;
#256 = CARTESIAN_POINT ( 'NONE',  ( 0.000000000000000000, 0.000000000000000000, 503.0000000000000000 ) ) ;
#257 =( LENGTH_UNIT ( ) NAMED_UNIT ( * ) SI_UNIT ( .MILLI., .METRE. ) );
#258 = CIRCLE ( 'NONE', #293, 2.600000000000000089 ) ;
#259 = MECHANICAL_CONTEXT ( 'NONE', #110, 'mechanical' ) ;
#260 = ORIENTED_EDGE ( 'NONE', *, *, #108, .F. ) ;
#261 = CARTESIAN_POINT ( 'NONE',  ( 0.000000000000000000, 0.000000000000000000, 3.199999999999980638 ) ) ;
#262 = ADVANCED_FACE ( 'NONE', ( #72 ), #167, .T. ) ;
#263 = ORIENTED_EDGE ( 'NONE', *, *, #50, .F. ) ;
#264 = DIRECTION ( 'NONE',  ( -1.000000000000000000, 0.000000000000000000, 0.000000000000000000 ) ) ;
#265 = VERTEX_POINT ( 'NONE', #306 ) ;
#266 = APPROVAL_PERSON_ORGANIZATION ( #54, #46, #109 ) ;
#267 = ORIENTED_EDGE ( 'NONE', *, *, #134, .F. ) ;
#268 = CC_DESIGN_PERSON_AND_ORGANIZATION_ASSIGNMENT ( #100, #198, ( #89 ) ) ;
#269 = VERTEX_POINT ( 'NONE', #283 ) ;
#270 = COORDINATED_UNIVERSAL_TIME_OFFSET ( 1, 0, .AHEAD. ) ;
#271 = CARTESIAN_POINT ( 'NONE',  ( 0.000000000000000000, 0.000000000000000000, 3.000000000000000000 ) ) ;
#272 = APPROVAL_DATE_TIME ( #36, #46 ) ;
#273 = ADVANCED_FACE ( 'NONE', ( #71 ), #231, .F. ) ;
#274 = FACE_OUTER_BOUND ( 'NONE', #150, .T. ) ;
#275 = CIRCLE ( 'NONE', #112, 0.2000000000000000944 ) ;
#276 = PERSON_AND_ORGANIZATION_ROLE ( 'design_supplier' ) ;
#277 = CIRCLE ( 'NONE', #287, 2.600000000000000089 ) ;
#278 = DIRECTION ( 'NONE',  ( -0.000000000000000000, -0.000000000000000000, -1.000000000000000000 ) ) ;
#279 = ORIENTED_EDGE ( 'NONE', *, *, #119, .T. ) ;
#280 = DIRECTION ( 'NONE',  ( 0.000000000000000000, 0.000000000000000000, 1.000000000000000000 ) ) ;
#281 = CYLINDRICAL_SURFACE ( 'NONE', #183, 2.600000000000000089 ) ;
#282 = AXIS2_PLACEMENT_3D ( 'NONE', #17, #237, #146 ) ;
#283 = CARTESIAN_POINT ( 'NONE',  ( -2.600000000000000089, 0.000000000000000000, 503.0000000000000000 ) ) ;
#284 = DIRECTION ( 'NONE',  ( 0.000000000000000000, 0.000000000000000000, 1.000000000000000000 ) ) ;
#285 = EDGE_CURVE ( 'NONE', #97, #79, #275, .T. ) ;
#286 = CYLINDRICAL_SURFACE ( 'NONE', #303, 2.600000000000000089 ) ;
#287 = AXIS2_PLACEMENT_3D ( 'NONE', #40, #88, #137 ) ;
#288 = APPROVAL_PERSON_ORGANIZATION ( #290, #63, #174 ) ;
#289 = VERTEX_POINT ( 'NONE', #140 ) ;
#290 = PERSON_AND_ORGANIZATION ( #172, #24 ) ;
#291 = DIRECTION ( 'NONE',  ( 1.000000000000000000, 0.000000000000000000, 0.000000000000000000 ) ) ;
#292 = EDGE_LOOP ( 'NONE', ( #241, #177 ) ) ;
#293 = AXIS2_PLACEMENT_3D ( 'NONE', #161, #35, #224 ) ;
#294 = EDGE_LOOP ( 'NONE', ( #4, #121 ) ) ;
#295 = APPROVAL_STATUS ( 'not_yet_approved' ) ;
#296 = CARTESIAN_POINT ( 'NONE',  ( -5.000000000000000000, 0.000000000000000000, 3.000000000000000000 ) ) ;
#297 = PERSON_AND_ORGANIZATION ( #172, #24 ) ;
#298 = FACE_OUTER_BOUND ( 'NONE', #292, .T. ) ;
#299 = ADVANCED_BREP_SHAPE_REPRESENTATION ( 'b373', ( #236, #74 ), #142 ) ;
#300 = CARTESIAN_POINT ( 'NONE',  ( 0.000000000000000000, 0.000000000000000000, 3.000000000000000000 ) ) ;
#301 = EDGE_CURVE ( 'NONE', #82, #75, #138, .T. ) ;
#302 = CC_DESIGN_DATE_AND_TIME_ASSIGNMENT ( #83, #223, ( #131 ) ) ;
#303 = AXIS2_PLACEMENT_3D ( 'NONE', #70, #165, #264 ) ;
#304 = DIRECTION ( 'NONE',  ( 1.000000000000000000, 0.000000000000000000, 0.000000000000000000 ) ) ;
#305 =( NAMED_UNIT ( * ) PLANE_ANGLE_UNIT ( ) SI_UNIT ( $, .RADIAN. ) );
#306 = CARTESIAN_POINT ( 'NONE',  ( 5.000000000000000000, 6.123233995736766282E-16, 3.000000000000000000 ) ) ;
#307 = EDGE_LOOP ( 'NONE', ( #214, #160, #247, #267 ) ) ;
ENDSEC;
END-ISO-10303-21;
