ISO-10303-21;
HEADER;
FILE_DESCRIPTION (( 'STEP AP203' ),
    '1' );
FILE_NAME ('1269.STEP',
    '2022-06-20T09:39:03',
    ( '' ),
    ( '' ),
    'SwSTEP 2.0',
    'SolidWorks 2019',
    '' );
FILE_SCHEMA (( 'CONFIG_CONTROL_DESIGN' ));
ENDSEC;

DATA;
#1 = PERSON_AND_ORGANIZATION_ROLE ( 'design_supplier' ) ;
#2 = ADVANCED_FACE ( 'NONE', ( #94 ), #216, .F. ) ;
#3 = CYLINDRICAL_SURFACE ( 'NONE', #232, 5.100000000000001421 ) ;
#4 = PLANE ( 'NONE',  #191 ) ;
#5 = DIRECTION ( 'NONE',  ( 0.000000000000000000, 0.000000000000000000, 1.000000000000000000 ) ) ;
#6 = CC_DESIGN_PERSON_AND_ORGANIZATION_ASSIGNMENT ( #273, #229, ( #28 ) ) ;
#7 = LOCAL_TIME ( 11, 39, 3.000000000000000000, #65 ) ;
#8 = PERSON_AND_ORGANIZATION ( #135, #247 ) ;
#9 = CARTESIAN_POINT ( 'NONE',  ( -8.000000000000000000, 0.000000000000000000, 5.000000000000000000 ) ) ;
#10 = LINE ( 'NONE', #104, #206 ) ;
#11 = AXIS2_PLACEMENT_3D ( 'NONE', #146, #297, #62 ) ;
#12 = APPROVAL_DATE_TIME ( #148, #199 ) ;
#13 = APPLICATION_CONTEXT ( 'configuration controlled 3d designs of mechanical parts and assemblies' ) ;
#14 = ADVANCED_FACE ( 'NONE', ( #260 ), #185, .F. ) ;
#15 = CARTESIAN_POINT ( 'NONE',  ( -8.000000000000000000, 0.000000000000000000, 0.000000000000000000 ) ) ;
#16 = DIRECTION ( 'NONE',  ( 0.000000000000000000, 0.000000000000000000, 1.000000000000000000 ) ) ;
#17 = PRODUCT_RELATED_PRODUCT_CATEGORY ( 'detail', '', ( #162 ) ) ;
#18 = DIRECTION ( 'NONE',  ( 1.000000000000000000, 0.000000000000000000, 0.000000000000000000 ) ) ;
#19 = EDGE_CURVE ( 'NONE', #236, #71, #150, .T. ) ;
#20 =( GEOMETRIC_REPRESENTATION_CONTEXT ( 3 ) GLOBAL_UNCERTAINTY_ASSIGNED_CONTEXT ( ( #37 ) ) GLOBAL_UNIT_ASSIGNED_CONTEXT ( ( #157, #205, #154 ) ) REPRESENTATION_CONTEXT ( 'NONE', 'WORKASPACE' ) );
#21 = APPROVAL_DATE_TIME ( #107, #90 ) ;
#22 = ORIENTED_EDGE ( 'NONE', *, *, #174, .T. ) ;
#23 = CARTESIAN_POINT ( 'NONE',  ( 5.100000000000001421, 6.245698675651502811E-16, 5.199999999999982414 ) ) ;
#24 = AXIS2_PLACEMENT_3D ( 'NONE', #251, #84, #223 ) ;
#25 = VERTEX_POINT ( 'NONE', #287 ) ;
#26 = FACE_OUTER_BOUND ( 'NONE', #166, .T. ) ;
#27 = DIRECTION ( 'NONE',  ( 1.000000000000000000, 0.000000000000000000, 0.000000000000000000 ) ) ;
#28 = PRODUCT_DEFINITION ( 'NEZNÁMÝ', '', #173, #120 ) ;
#29 = ORIENTED_EDGE ( 'NONE', *, *, #298, .F. ) ;
#30 = DIRECTION ( 'NONE',  ( 1.000000000000000000, 0.000000000000000000, -0.000000000000000000 ) ) ;
#31 = CYLINDRICAL_SURFACE ( 'NONE', #299, 5.100000000000001421 ) ;
#32 = CARTESIAN_POINT ( 'NONE',  ( 0.000000000000000000, 0.000000000000000000, 5.000000000000000000 ) ) ;
#33 = PERSON_AND_ORGANIZATION ( #135, #247 ) ;
#34 = CARTESIAN_POINT ( 'NONE',  ( -5.100000000000001421, 0.000000000000000000, 405.0000000000000000 ) ) ;
#35 = MANIFOLD_SOLID_BREP ( 'Zaoblit1', #82 ) ;
#36 = CARTESIAN_POINT ( 'NONE',  ( 5.300000000000000711, 0.000000000000000000, 5.199999999999982414 ) ) ;
#37 = UNCERTAINTY_MEASURE_WITH_UNIT (LENGTH_MEASURE( 1.000000000000000082E-05 ), #157, 'distance_accuracy_value', 'NONE');
#38 = CARTESIAN_POINT ( 'NONE',  ( 5.100000000000001421, 6.245698675651502811E-16, 405.0000000000000000 ) ) ;
#39 = CC_DESIGN_PERSON_AND_ORGANIZATION_ASSIGNMENT ( #204, #42, ( #173 ) ) ;
#40 = CALENDAR_DATE ( 2022, 20, 6 ) ;
#41 = PERSON_AND_ORGANIZATION ( #135, #247 ) ;
#42 = PERSON_AND_ORGANIZATION_ROLE ( 'creator' ) ;
#43 = ADVANCED_FACE ( 'NONE', ( #26 ), #3, .T. ) ;
#44 = AXIS2_PLACEMENT_3D ( 'NONE', #79, #198, #171 ) ;
#45 = EDGE_LOOP ( 'NONE', ( #286, #48 ) ) ;
#46 = EDGE_LOOP ( 'NONE', ( #108, #134, #186, #233 ) ) ;
#47 = ORIENTED_EDGE ( 'NONE', *, *, #188, .F. ) ;
#48 = ORIENTED_EDGE ( 'NONE', *, *, #61, .T. ) ;
#49 = ADVANCED_FACE ( 'NONE', ( #190, #52 ), #4, .T. ) ;
#50 = ORIENTED_EDGE ( 'NONE', *, *, #144, .T. ) ;
#51 = VERTEX_POINT ( 'NONE', #306 ) ;
#52 = FACE_OUTER_BOUND ( 'NONE', #83, .T. ) ;
#53 = DIRECTION ( 'NONE',  ( 0.000000000000000000, 0.000000000000000000, 1.000000000000000000 ) ) ;
#54 = AXIS2_PLACEMENT_3D ( 'NONE', #161, #209, #27 ) ;
#55 = DATE_AND_TIME ( #262, #253 ) ;
#56 = CARTESIAN_POINT ( 'NONE',  ( -5.300000000000000711, 6.490628035480972910E-16, 5.199999999999982414 ) ) ;
#57 = PERSON_AND_ORGANIZATION_ROLE ( 'classification_officer' ) ;
#58 = FACE_OUTER_BOUND ( 'NONE', #45, .T. ) ;
#59 = VECTOR ( 'NONE', #266, 1000.000000000000000 ) ;
#60 = COORDINATED_UNIVERSAL_TIME_OFFSET ( 1, 0, .AHEAD. ) ;
#61 = EDGE_CURVE ( 'NONE', #51, #261, #176, .T. ) ;
#62 = DIRECTION ( 'NONE',  ( 1.000000000000000000, 0.000000000000000000, 0.000000000000000000 ) ) ;
#63 = CARTESIAN_POINT ( 'NONE',  ( 0.000000000000000000, 0.000000000000000000, 405.0000000000000000 ) ) ;
#64 = AXIS2_PLACEMENT_3D ( 'NONE', #123, #269, #149 ) ;
#65 = COORDINATED_UNIVERSAL_TIME_OFFSET ( 1, 0, .AHEAD. ) ;
#66 = EDGE_LOOP ( 'NONE', ( #29, #22, #116, #304 ) ) ;
#67 = ADVANCED_FACE ( 'NONE', ( #241 ), #31, .T. ) ;
#68 = APPROVAL_STATUS ( 'not_yet_approved' ) ;
#69 = CC_DESIGN_PERSON_AND_ORGANIZATION_ASSIGNMENT ( #8, #57, ( #158 ) ) ;
#70 = ORIENTED_EDGE ( 'NONE', *, *, #95, .F. ) ;
#71 = VERTEX_POINT ( 'NONE', #151 ) ;
#72 = CC_DESIGN_PERSON_AND_ORGANIZATION_ASSIGNMENT ( #301, #128, ( #162 ) ) ;
#73 = CIRCLE ( 'NONE', #274, 5.100000000000001421 ) ;
#74 = DIRECTION ( 'NONE',  ( 1.000000000000000000, 0.000000000000000000, -0.000000000000000000 ) ) ;
#75 = DIRECTION ( 'NONE',  ( -0.000000000000000000, -0.000000000000000000, -1.000000000000000000 ) ) ;
#76 = ORIENTED_EDGE ( 'NONE', *, *, #61, .F. ) ;
#77 = DIRECTION ( 'NONE',  ( -1.000000000000000000, 0.000000000000000000, 0.000000000000000000 ) ) ;
#78 = CARTESIAN_POINT ( 'NONE',  ( -8.000000000000000000, 0.000000000000000000, 5.000000000000000000 ) ) ;
#79 = CARTESIAN_POINT ( 'NONE',  ( 0.000000000000000000, 0.000000000000000000, 405.0000000000000000 ) ) ;
#80 = CARTESIAN_POINT ( 'NONE',  ( -5.300000000000000711, 6.490628035480971924E-16, 4.999999999999991118 ) ) ;
#81 = CYLINDRICAL_SURFACE ( 'NONE', #210, 8.000000000000000000 ) ;
#82 = CLOSED_SHELL ( 'NONE', ( #200, #43, #295, #163, #49, #2, #67, #272, #14 ) ) ;
#83 = EDGE_LOOP ( 'NONE', ( #263, #137 ) ) ;
#84 = DIRECTION ( 'NONE',  ( 0.000000000000000000, 0.000000000000000000, 1.000000000000000000 ) ) ;
#85 = CIRCLE ( 'NONE', #127, 8.000000000000000000 ) ;
#86 = APPLICATION_PROTOCOL_DEFINITION ( 'international standard', 'config_control_design', 1994, #13 ) ;
#87 = ORIENTED_EDGE ( 'NONE', *, *, #194, .F. ) ;
#88 = DATE_AND_TIME ( #303, #268 ) ;
#89 = VERTEX_POINT ( 'NONE', #101 ) ;
#90 = APPROVAL ( #68, 'NEURÈENÝ' ) ;
#91 = MECHANICAL_CONTEXT ( 'NONE', #13, 'mechanical' ) ;
#92 = VERTEX_POINT ( 'NONE', #172 ) ;
#93 = VERTEX_POINT ( 'NONE', #15 ) ;
#94 = FACE_OUTER_BOUND ( 'NONE', #300, .T. ) ;
#95 = EDGE_CURVE ( 'NONE', #89, #93, #119, .T. ) ;
#96 = CIRCLE ( 'NONE', #11, 5.100000000000001421 ) ;
#97 = CARTESIAN_POINT ( 'NONE',  ( 0.000000000000000000, 0.000000000000000000, 5.000000000000000000 ) ) ;
#98 = DIRECTION ( 'NONE',  ( 0.000000000000000000, 0.000000000000000000, 1.000000000000000000 ) ) ;
#99 = AXIS2_PLACEMENT_3D ( 'NONE', #215, #5, #141 ) ;
#100 = CARTESIAN_POINT ( 'NONE',  ( 0.000000000000000000, 0.000000000000000000, 5.000000000000000000 ) ) ;
#101 = CARTESIAN_POINT ( 'NONE',  ( 8.000000000000000000, 9.797174393178825657E-16, 0.000000000000000000 ) ) ;
#102 = TOROIDAL_SURFACE ( 'NONE', #147, 5.300000000000000711, 0.2000000000000000111 ) ;
#103 = DIRECTION ( 'NONE',  ( -0.000000000000000000, -0.000000000000000000, -1.000000000000000000 ) ) ;
#104 = CARTESIAN_POINT ( 'NONE',  ( 8.000000000000000000, 9.797174393178825657E-16, 5.000000000000000000 ) ) ;
#105 = DIRECTION ( 'NONE',  ( -0.000000000000000000, -0.000000000000000000, -1.000000000000000000 ) ) ;
#106 = DATE_AND_TIME ( #278, #7 ) ;
#107 = DATE_AND_TIME ( #40, #239 ) ;
#108 = ORIENTED_EDGE ( 'NONE', *, *, #231, .F. ) ;
#109 = APPROVAL_PERSON_ORGANIZATION ( #41, #277, #227 ) ;
#110 = ORIENTED_EDGE ( 'NONE', *, *, #111, .T. ) ;
#111 = EDGE_CURVE ( 'NONE', #280, #71, #242, .T. ) ;
#112 = DIRECTION ( 'NONE',  ( -0.000000000000000000, -0.000000000000000000, -1.000000000000000000 ) ) ;
#113 = ORIENTED_EDGE ( 'NONE', *, *, #218, .T. ) ;
#114 = PRODUCT_DEFINITION_SHAPE ( 'NONE', 'NONE',  #28 ) ;
#115 = CIRCLE ( 'NONE', #189, 5.300000000000000711 ) ;
#116 = ORIENTED_EDGE ( 'NONE', *, *, #95, .T. ) ;
#117 = CC_DESIGN_PERSON_AND_ORGANIZATION_ASSIGNMENT ( #129, #1, ( #173 ) ) ;
#118 = CARTESIAN_POINT ( 'NONE',  ( 0.000000000000000000, 0.000000000000000000, 0.000000000000000000 ) ) ;
#119 = CIRCLE ( 'NONE', #203, 8.000000000000000000 ) ;
#120 = DESIGN_CONTEXT ( 'detailed design', #235, 'design' ) ;
#121 = DIRECTION ( 'NONE',  ( 1.000000000000000000, 0.000000000000000000, 0.000000000000000000 ) ) ;
#122 = APPROVAL_STATUS ( 'not_yet_approved' ) ;
#123 = CARTESIAN_POINT ( 'NONE',  ( 0.000000000000000000, 0.000000000000000000, 0.000000000000000000 ) ) ;
#124 = DIRECTION ( 'NONE',  ( 0.000000000000000000, 0.000000000000000000, -1.000000000000000000 ) ) ;
#125 = DIRECTION ( 'NONE',  ( 1.000000000000000000, 0.000000000000000000, 0.000000000000000000 ) ) ;
#126 = APPROVAL_ROLE ( '' ) ;
#127 = AXIS2_PLACEMENT_3D ( 'NONE', #100, #168, #249 ) ;
#128 = PERSON_AND_ORGANIZATION_ROLE ( 'design_owner' ) ;
#129 = PERSON_AND_ORGANIZATION ( #135, #247 ) ;
#130 = EDGE_CURVE ( 'NONE', #93, #89, #224, .T. ) ;
#131 = ORIENTED_EDGE ( 'NONE', *, *, #144, .F. ) ;
#132 = CC_DESIGN_APPROVAL ( #277, ( #28 ) ) ;
#133 = CC_DESIGN_DATE_AND_TIME_ASSIGNMENT ( #55, #145, ( #158 ) ) ;
#134 = ORIENTED_EDGE ( 'NONE', *, *, #259, .T. ) ;
#135 = PERSON ( 'NEURÈENÝ', 'NEURÈENÝ', 'NEURÈENÝ', ('NEURÈENÝ'), ('NEURÈENÝ'), ('NEURÈENÝ') ) ;
#136 = EDGE_LOOP ( 'NONE', ( #226, #87, #290, #211 ) ) ;
#137 = ORIENTED_EDGE ( 'NONE', *, *, #298, .T. ) ;
#138 = CC_DESIGN_DATE_AND_TIME_ASSIGNMENT ( #106, #254, ( #28 ) ) ;
#139 = ORIENTED_EDGE ( 'NONE', *, *, #130, .F. ) ;
#140 = CIRCLE ( 'NONE', #281, 5.100000000000001421 ) ;
#141 = DIRECTION ( 'NONE',  ( 1.000000000000000000, 0.000000000000000000, 0.000000000000000000 ) ) ;
#142 = LINE ( 'NONE', #222, #307 ) ;
#143 = DIRECTION ( 'NONE',  ( 1.224646799147353207E-16, 1.000000000000000000, -0.000000000000000000 ) ) ;
#144 = EDGE_CURVE ( 'NONE', #280, #92, #96, .T. ) ;
#145 = DATE_TIME_ROLE ( 'classification_date' ) ;
#146 = CARTESIAN_POINT ( 'NONE',  ( 0.000000000000000000, 0.000000000000000000, 5.199999999999982414 ) ) ;
#147 = AXIS2_PLACEMENT_3D ( 'NONE', #221, #296, #18 ) ;
#148 = DATE_AND_TIME ( #245, #288 ) ;
#149 = DIRECTION ( 'NONE',  ( 1.000000000000000000, 0.000000000000000000, 0.000000000000000000 ) ) ;
#150 = CIRCLE ( 'NONE', #256, 5.300000000000000711 ) ;
#151 = CARTESIAN_POINT ( 'NONE',  ( 5.300000000000000711, 0.000000000000000000, 4.999999999999991118 ) ) ;
#152 = COORDINATED_UNIVERSAL_TIME_OFFSET ( 1, 0, .AHEAD. ) ;
#153 = VECTOR ( 'NONE', #264, 1000.000000000000000 ) ;
#154 =( NAMED_UNIT ( * ) SI_UNIT ( $, .STERADIAN. ) SOLID_ANGLE_UNIT ( ) );
#155 = DIRECTION ( 'NONE',  ( 0.000000000000000000, 0.000000000000000000, 1.000000000000000000 ) ) ;
#156 = AXIS2_PLACEMENT_3D ( 'NONE', #276, #177, #271 ) ;
#157 =( LENGTH_UNIT ( ) NAMED_UNIT ( * ) SI_UNIT ( .MILLI., .METRE. ) );
#158 = SECURITY_CLASSIFICATION ( '', '', #212 ) ;
#159 = EDGE_LOOP ( 'NONE', ( #283, #47, #113, #238 ) ) ;
#160 = ORIENTED_EDGE ( 'NONE', *, *, #19, .T. ) ;
#161 = CARTESIAN_POINT ( 'NONE',  ( 0.000000000000000000, 0.000000000000000000, 5.199999999999982414 ) ) ;
#162 = PRODUCT ( '1269', '1269', '', ( #91 ) ) ;
#163 = ADVANCED_FACE ( 'NONE', ( #175 ), #81, .T. ) ;
#164 = DIRECTION ( 'NONE',  ( -1.000000000000000000, 0.000000000000000000, 0.000000000000000000 ) ) ;
#165 = APPROVAL_ROLE ( '' ) ;
#166 = EDGE_LOOP ( 'NONE', ( #76, #258, #50, #285 ) ) ;
#167 = AXIS2_PLACEMENT_3D ( 'NONE', #178, #155, #305 ) ;
#168 = DIRECTION ( 'NONE',  ( 0.000000000000000000, 0.000000000000000000, 1.000000000000000000 ) ) ;
#169 = COORDINATED_UNIVERSAL_TIME_OFFSET ( 1, 0, .AHEAD. ) ;
#170 = LINE ( 'NONE', #78, #153 ) ;
#171 = DIRECTION ( 'NONE',  ( 1.000000000000000000, 0.000000000000000000, -0.000000000000000000 ) ) ;
#172 = CARTESIAN_POINT ( 'NONE',  ( -5.100000000000001421, 0.000000000000000000, 5.199999999999982414 ) ) ;
#173 = PRODUCT_DEFINITION_FORMATION_WITH_SPECIFIED_SOURCE ( 'LIBOVOLNÝ', '', #162, .NOT_KNOWN. ) ;
#174 = EDGE_CURVE ( 'NONE', #25, #89, #10, .T. ) ;
#175 = FACE_OUTER_BOUND ( 'NONE', #136, .T. ) ;
#176 = CIRCLE ( 'NONE', #99, 5.100000000000001421 ) ;
#177 = DIRECTION ( 'NONE',  ( -0.000000000000000000, -0.000000000000000000, -1.000000000000000000 ) ) ;
#178 = CARTESIAN_POINT ( 'NONE',  ( 0.000000000000000000, 0.000000000000000000, 0.000000000000000000 ) ) ;
#179 = COORDINATED_UNIVERSAL_TIME_OFFSET ( 1, 0, .AHEAD. ) ;
#180 = VERTEX_POINT ( 'NONE', #9 ) ;
#181 = APPROVAL_DATE_TIME ( #88, #277 ) ;
#182 = APPLICATION_PROTOCOL_DEFINITION ( 'international standard', 'config_control_design', 1994, #235 ) ;
#183 = CC_DESIGN_APPROVAL ( #90, ( #173 ) ) ;
#184 = DIRECTION ( 'NONE',  ( 0.000000000000000000, 0.000000000000000000, 1.000000000000000000 ) ) ;
#185 = TOROIDAL_SURFACE ( 'NONE', #54, 5.300000000000000711, 0.2000000000000000111 ) ;
#186 = ORIENTED_EDGE ( 'NONE', *, *, #246, .F. ) ;
#187 = CARTESIAN_POINT ( 'NONE',  ( 0.000000000000000000, 0.000000000000000000, 0.000000000000000000 ) ) ;
#188 = EDGE_CURVE ( 'NONE', #261, #51, #73, .T. ) ;
#189 = AXIS2_PLACEMENT_3D ( 'NONE', #32, #219, #121 ) ;
#190 = FACE_BOUND ( 'NONE', #228, .T. ) ;
#191 = AXIS2_PLACEMENT_3D ( 'NONE', #237, #98, #74 ) ;
#192 = ORIENTED_EDGE ( 'NONE', *, *, #19, .F. ) ;
#193 = CARTESIAN_POINT ( 'NONE',  ( 0.000000000000000000, 0.000000000000000000, 405.0000000000000000 ) ) ;
#194 = EDGE_CURVE ( 'NONE', #180, #25, #85, .T. ) ;
#195 = CIRCLE ( 'NONE', #292, 0.1999999999999996503 ) ;
#196 = DIRECTION ( 'NONE',  ( -1.000000000000000000, 0.000000000000000000, 0.000000000000000000 ) ) ;
#197 = SHAPE_DEFINITION_REPRESENTATION ( #114, #240 ) ;
#198 = DIRECTION ( 'NONE',  ( 0.000000000000000000, 0.000000000000000000, 1.000000000000000000 ) ) ;
#199 = APPROVAL ( #122, 'NEURÈENÝ' ) ;
#200 = ADVANCED_FACE ( 'NONE', ( #294 ), #102, .F. ) ;
#201 = CARTESIAN_POINT ( 'NONE',  ( 0.000000000000000000, 0.000000000000000000, 5.199999999999982414 ) ) ;
#202 = APPROVAL_PERSON_ORGANIZATION ( #279, #90, #126 ) ;
#203 = AXIS2_PLACEMENT_3D ( 'NONE', #118, #217, #125 ) ;
#204 = PERSON_AND_ORGANIZATION ( #135, #247 ) ;
#205 =( NAMED_UNIT ( * ) PLANE_ANGLE_UNIT ( ) SI_UNIT ( $, .RADIAN. ) );
#206 = VECTOR ( 'NONE', #103, 1000.000000000000000 ) ;
#207 = APPROVAL_STATUS ( 'not_yet_approved' ) ;
#208 = ORIENTED_EDGE ( 'NONE', *, *, #246, .T. ) ;
#209 = DIRECTION ( 'NONE',  ( 0.000000000000000000, 0.000000000000000000, 1.000000000000000000 ) ) ;
#210 = AXIS2_PLACEMENT_3D ( 'NONE', #291, #270, #196 ) ;
#211 = ORIENTED_EDGE ( 'NONE', *, *, #130, .T. ) ;
#212 = SECURITY_CLASSIFICATION_LEVEL ( 'unclassified' ) ;
#213 = EDGE_CURVE ( 'NONE', #180, #93, #170, .T. ) ;
#214 = CARTESIAN_POINT ( 'NONE',  ( 0.000000000000000000, 0.000000000000000000, 405.0000000000000000 ) ) ;
#215 = CARTESIAN_POINT ( 'NONE',  ( 0.000000000000000000, 0.000000000000000000, 405.0000000000000000 ) ) ;
#216 = PLANE ( 'NONE',  #289 ) ;
#217 = DIRECTION ( 'NONE',  ( 0.000000000000000000, 0.000000000000000000, 1.000000000000000000 ) ) ;
#218 = EDGE_CURVE ( 'NONE', #261, #92, #142, .T. ) ;
#219 = DIRECTION ( 'NONE',  ( -0.000000000000000000, -0.000000000000000000, -1.000000000000000000 ) ) ;
#220 = PLANE ( 'NONE',  #44 ) ;
#221 = CARTESIAN_POINT ( 'NONE',  ( 0.000000000000000000, 0.000000000000000000, 5.199999999999982414 ) ) ;
#222 = CARTESIAN_POINT ( 'NONE',  ( -5.100000000000001421, 0.000000000000000000, 405.0000000000000000 ) ) ;
#223 = DIRECTION ( 'NONE',  ( 1.000000000000000000, 0.000000000000000000, 0.000000000000000000 ) ) ;
#224 = CIRCLE ( 'NONE', #64, 8.000000000000000000 ) ;
#225 = FACE_OUTER_BOUND ( 'NONE', #66, .T. ) ;
#226 = ORIENTED_EDGE ( 'NONE', *, *, #174, .F. ) ;
#227 = APPROVAL_ROLE ( '' ) ;
#228 = EDGE_LOOP ( 'NONE', ( #208, #160 ) ) ;
#229 = PERSON_AND_ORGANIZATION_ROLE ( 'creator' ) ;
#230 = EDGE_LOOP ( 'NONE', ( #234, #131, #110, #192 ) ) ;
#231 = EDGE_CURVE ( 'NONE', #92, #280, #140, .T. ) ;
#232 = AXIS2_PLACEMENT_3D ( 'NONE', #214, #75, #164 ) ;
#233 = ORIENTED_EDGE ( 'NONE', *, *, #111, .F. ) ;
#234 = ORIENTED_EDGE ( 'NONE', *, *, #259, .F. ) ;
#235 = APPLICATION_CONTEXT ( 'configuration controlled 3d designs of mechanical parts and assemblies' ) ;
#236 = VERTEX_POINT ( 'NONE', #80 ) ;
#237 = CARTESIAN_POINT ( 'NONE',  ( 0.000000000000000000, 0.000000000000000000, 5.000000000000000000 ) ) ;
#238 = ORIENTED_EDGE ( 'NONE', *, *, #231, .T. ) ;
#239 = LOCAL_TIME ( 11, 39, 3.000000000000000000, #152 ) ;
#240 = ADVANCED_BREP_SHAPE_REPRESENTATION ( '1269', ( #35, #167 ), #20 ) ;
#241 = FACE_OUTER_BOUND ( 'NONE', #159, .T. ) ;
#242 = CIRCLE ( 'NONE', #284, 0.1999999999999996503 ) ;
#243 = DIRECTION ( 'NONE',  ( 1.000000000000000000, 0.000000000000000000, 0.000000000000000000 ) ) ;
#244 = DIRECTION ( 'NONE',  ( -1.000000000000000000, 1.224646799147353454E-16, 0.000000000000000000 ) ) ;
#245 = CALENDAR_DATE ( 2022, 20, 6 ) ;
#246 = EDGE_CURVE ( 'NONE', #71, #236, #115, .T. ) ;
#247 = ORGANIZATION ( 'NEURÈENÝ', 'NEURÈENÝ', '' ) ;
#248 = DIRECTION ( 'NONE',  ( 1.000000000000000000, 0.000000000000000000, 0.000000000000000000 ) ) ;
#249 = DIRECTION ( 'NONE',  ( 1.000000000000000000, 0.000000000000000000, 0.000000000000000000 ) ) ;
#250 = DIRECTION ( 'NONE',  ( 0.000000000000000000, -1.000000000000000000, 0.000000000000000000 ) ) ;
#251 = CARTESIAN_POINT ( 'NONE',  ( 0.000000000000000000, 0.000000000000000000, 5.000000000000000000 ) ) ;
#252 = EDGE_CURVE ( 'NONE', #51, #280, #293, .T. ) ;
#253 = LOCAL_TIME ( 11, 39, 3.000000000000000000, #169 ) ;
#254 = DATE_TIME_ROLE ( 'creation_date' ) ;
#255 = CYLINDRICAL_SURFACE ( 'NONE', #156, 8.000000000000000000 ) ;
#256 = AXIS2_PLACEMENT_3D ( 'NONE', #97, #112, #257 ) ;
#257 = DIRECTION ( 'NONE',  ( 1.000000000000000000, 0.000000000000000000, 0.000000000000000000 ) ) ;
#258 = ORIENTED_EDGE ( 'NONE', *, *, #252, .T. ) ;
#259 = EDGE_CURVE ( 'NONE', #92, #236, #195, .T. ) ;
#260 = FACE_OUTER_BOUND ( 'NONE', #230, .T. ) ;
#261 = VERTEX_POINT ( 'NONE', #34 ) ;
#262 = CALENDAR_DATE ( 2022, 20, 6 ) ;
#263 = ORIENTED_EDGE ( 'NONE', *, *, #194, .T. ) ;
#264 = DIRECTION ( 'NONE',  ( -0.000000000000000000, -0.000000000000000000, -1.000000000000000000 ) ) ;
#265 = APPROVAL_PERSON_ORGANIZATION ( #33, #199, #165 ) ;
#266 = DIRECTION ( 'NONE',  ( -0.000000000000000000, -0.000000000000000000, -1.000000000000000000 ) ) ;
#267 = DIRECTION ( 'NONE',  ( -0.000000000000000000, -0.000000000000000000, -1.000000000000000000 ) ) ;
#268 = LOCAL_TIME ( 11, 39, 3.000000000000000000, #179 ) ;
#269 = DIRECTION ( 'NONE',  ( 0.000000000000000000, 0.000000000000000000, 1.000000000000000000 ) ) ;
#270 = DIRECTION ( 'NONE',  ( -0.000000000000000000, -0.000000000000000000, -1.000000000000000000 ) ) ;
#271 = DIRECTION ( 'NONE',  ( -1.000000000000000000, 0.000000000000000000, 0.000000000000000000 ) ) ;
#272 = ADVANCED_FACE ( 'NONE', ( #58 ), #220, .T. ) ;
#273 = PERSON_AND_ORGANIZATION ( #135, #247 ) ;
#274 = AXIS2_PLACEMENT_3D ( 'NONE', #63, #16, #248 ) ;
#275 = CC_DESIGN_APPROVAL ( #199, ( #158 ) ) ;
#276 = CARTESIAN_POINT ( 'NONE',  ( 0.000000000000000000, 0.000000000000000000, 5.000000000000000000 ) ) ;
#277 = APPROVAL ( #207, 'NEURÈENÝ' ) ;
#278 = CALENDAR_DATE ( 2022, 20, 6 ) ;
#279 = PERSON_AND_ORGANIZATION ( #135, #247 ) ;
#280 = VERTEX_POINT ( 'NONE', #23 ) ;
#281 = AXIS2_PLACEMENT_3D ( 'NONE', #201, #53, #243 ) ;
#282 = CC_DESIGN_SECURITY_CLASSIFICATION ( #158, ( #173 ) ) ;
#283 = ORIENTED_EDGE ( 'NONE', *, *, #252, .F. ) ;
#284 = AXIS2_PLACEMENT_3D ( 'NONE', #36, #250, #124 ) ;
#285 = ORIENTED_EDGE ( 'NONE', *, *, #218, .F. ) ;
#286 = ORIENTED_EDGE ( 'NONE', *, *, #188, .T. ) ;
#287 = CARTESIAN_POINT ( 'NONE',  ( 8.000000000000000000, 9.797174393178825657E-16, 5.000000000000000000 ) ) ;
#288 = LOCAL_TIME ( 11, 39, 3.000000000000000000, #60 ) ;
#289 = AXIS2_PLACEMENT_3D ( 'NONE', #187, #184, #30 ) ;
#290 = ORIENTED_EDGE ( 'NONE', *, *, #213, .T. ) ;
#291 = CARTESIAN_POINT ( 'NONE',  ( 0.000000000000000000, 0.000000000000000000, 5.000000000000000000 ) ) ;
#292 = AXIS2_PLACEMENT_3D ( 'NONE', #56, #143, #244 ) ;
#293 = LINE ( 'NONE', #38, #59 ) ;
#294 = FACE_OUTER_BOUND ( 'NONE', #46, .T. ) ;
#295 = ADVANCED_FACE ( 'NONE', ( #225 ), #255, .T. ) ;
#296 = DIRECTION ( 'NONE',  ( 0.000000000000000000, 0.000000000000000000, 1.000000000000000000 ) ) ;
#297 = DIRECTION ( 'NONE',  ( 0.000000000000000000, 0.000000000000000000, 1.000000000000000000 ) ) ;
#298 = EDGE_CURVE ( 'NONE', #25, #180, #302, .T. ) ;
#299 = AXIS2_PLACEMENT_3D ( 'NONE', #193, #105, #77 ) ;
#300 = EDGE_LOOP ( 'NONE', ( #139, #70 ) ) ;
#301 = PERSON_AND_ORGANIZATION ( #135, #247 ) ;
#302 = CIRCLE ( 'NONE', #24, 8.000000000000000000 ) ;
#303 = CALENDAR_DATE ( 2022, 20, 6 ) ;
#304 = ORIENTED_EDGE ( 'NONE', *, *, #213, .F. ) ;
#305 = DIRECTION ( 'NONE',  ( 1.000000000000000000, 0.000000000000000000, 0.000000000000000000 ) ) ;
#306 = CARTESIAN_POINT ( 'NONE',  ( 5.100000000000001421, 6.245698675651502811E-16, 405.0000000000000000 ) ) ;
#307 = VECTOR ( 'NONE', #267, 1000.000000000000000 ) ;
ENDSEC;
END-ISO-10303-21;
