ISO-10303-21;
HEADER;
FILE_DESCRIPTION (( 'STEP AP203' ),
    '1' );
FILE_NAME ('d1a1.STEP',
    '2022-06-20T10:21:00',
    ( '' ),
    ( '' ),
    'SwSTEP 2.0',
    'SolidWorks 2019',
    '' );
FILE_SCHEMA (( 'CONFIG_CONTROL_DESIGN' ));
ENDSEC;

DATA;
#1 = CARTESIAN_POINT ( 'NONE',  ( 2.000000000000000000, 2.449293598294706414E-16, 2.000000000000000000 ) ) ;
#2 = CC_DESIGN_DATE_AND_TIME_ASSIGNMENT ( #238, #161, ( #234 ) ) ;
#3 = DIRECTION ( 'NONE',  ( -0.000000000000000000, -0.000000000000000000, -1.000000000000000000 ) ) ;
#4 = CIRCLE ( 'NONE', #286, 1.200000000000000178 ) ;
#5 = PLANE ( 'NONE',  #150 ) ;
#6 = MANIFOLD_SOLID_BREP ( 'Zaoblit1', #289 ) ;
#7 = CARTESIAN_POINT ( 'NONE',  ( 2.000000000000000000, 2.449293598294706414E-16, 0.000000000000000000 ) ) ;
#8 = DIRECTION ( 'NONE',  ( -0.000000000000000000, -0.000000000000000000, -1.000000000000000000 ) ) ;
#9 = CC_DESIGN_PERSON_AND_ORGANIZATION_ASSIGNMENT ( #192, #218, ( #19 ) ) ;
#10 = CYLINDRICAL_SURFACE ( 'NONE', #221, 2.000000000000000000 ) ;
#11 = AXIS2_PLACEMENT_3D ( 'NONE', #288, #123, #165 ) ;
#12 = CC_DESIGN_DATE_AND_TIME_ASSIGNMENT ( #136, #142, ( #55 ) ) ;
#13 = ORIENTED_EDGE ( 'NONE', *, *, #120, .F. ) ;
#14 = PLANE ( 'NONE',  #163 ) ;
#15 = ORIENTED_EDGE ( 'NONE', *, *, #46, .F. ) ;
#16 = CARTESIAN_POINT ( 'NONE',  ( -2.000000000000000000, 0.000000000000000000, 2.000000000000000000 ) ) ;
#17 = EDGE_LOOP ( 'NONE', ( #107, #131, #57, #276 ) ) ;
#18 = ORIENTED_EDGE ( 'NONE', *, *, #79, .F. ) ;
#19 = PRODUCT_DEFINITION_FORMATION_WITH_SPECIFIED_SOURCE ( 'LIBOVOLNÝ', '', #97, .NOT_KNOWN. ) ;
#20 = PERSON_AND_ORGANIZATION ( #207, #178 ) ;
#21 = APPROVAL_ROLE ( '' ) ;
#22 = PLANE ( 'NONE',  #158 ) ;
#23 = LOCAL_TIME ( 12, 21, 0.000000000000000000, #304 ) ;
#24 = CARTESIAN_POINT ( 'NONE',  ( 0.000000000000000000, 0.000000000000000000, 0.000000000000000000 ) ) ;
#25 = CIRCLE ( 'NONE', #245, 0.2000000000000000944 ) ;
#26 = CARTESIAN_POINT ( 'NONE',  ( 0.000000000000000000, 0.000000000000000000, 102.0000000000000142 ) ) ;
#27 = DIRECTION ( 'NONE',  ( 1.000000000000000000, 0.000000000000000000, 0.000000000000000000 ) ) ;
#28 = CIRCLE ( 'NONE', #193, 2.000000000000000000 ) ;
#29 = DIRECTION ( 'NONE',  ( -0.000000000000000000, -0.000000000000000000, -1.000000000000000000 ) ) ;
#30 = ADVANCED_FACE ( 'NONE', ( #240 ), #5, .T. ) ;
#31 = CARTESIAN_POINT ( 'NONE',  ( 0.000000000000000000, 0.000000000000000000, 102.0000000000000142 ) ) ;
#32 = AXIS2_PLACEMENT_3D ( 'NONE', #179, #83, #182 ) ;
#33 = ADVANCED_FACE ( 'NONE', ( #219 ), #22, .F. ) ;
#34 = VERTEX_POINT ( 'NONE', #198 ) ;
#35 = LINE ( 'NONE', #229, #248 ) ;
#36 = ORIENTED_EDGE ( 'NONE', *, *, #76, .T. ) ;
#37 = LOCAL_TIME ( 12, 21, 0.000000000000000000, #114 ) ;
#38 = DIRECTION ( 'NONE',  ( 0.000000000000000000, 0.000000000000000000, 1.000000000000000000 ) ) ;
#39 = VERTEX_POINT ( 'NONE', #285 ) ;
#40 = CARTESIAN_POINT ( 'NONE',  ( 0.000000000000000000, 0.000000000000000000, 0.000000000000000000 ) ) ;
#41 = EDGE_LOOP ( 'NONE', ( #70, #36 ) ) ;
#42 = CIRCLE ( 'NONE', #264, 2.000000000000000000 ) ;
#43 = ADVANCED_FACE ( 'NONE', ( #144 ), #47, .T. ) ;
#44 = CARTESIAN_POINT ( 'NONE',  ( 0.000000000000000000, 0.000000000000000000, 102.0000000000000142 ) ) ;
#45 = DATE_AND_TIME ( #164, #23 ) ;
#46 = EDGE_CURVE ( 'NONE', #34, #231, #56, .T. ) ;
#47 = CYLINDRICAL_SURFACE ( 'NONE', #273, 1.000000000000000000 ) ;
#48 = DIRECTION ( 'NONE',  ( 1.000000000000000000, 0.000000000000000000, -0.000000000000000000 ) ) ;
#49 = DIRECTION ( 'NONE',  ( -1.000000000000000000, 1.224646799147351975E-16, 0.000000000000000000 ) ) ;
#50 = CARTESIAN_POINT ( 'NONE',  ( 0.000000000000000000, 0.000000000000000000, 2.199999999999993516 ) ) ;
#51 = LOCAL_TIME ( 12, 21, 0.000000000000000000, #63 ) ;
#52 = CC_DESIGN_PERSON_AND_ORGANIZATION_ASSIGNMENT ( #20, #68, ( #97 ) ) ;
#53 = DIRECTION ( 'NONE',  ( 1.000000000000000000, 0.000000000000000000, -0.000000000000000000 ) ) ;
#54 = CARTESIAN_POINT ( 'NONE',  ( 0.000000000000000000, 0.000000000000000000, 2.000000000000000000 ) ) ;
#55 = SECURITY_CLASSIFICATION ( '', '', #281 ) ;
#56 = CIRCLE ( 'NONE', #259, 1.000000000000000000 ) ;
#57 = ORIENTED_EDGE ( 'NONE', *, *, #270, .T. ) ;
#58 = CARTESIAN_POINT ( 'NONE',  ( 0.000000000000000000, 0.000000000000000000, 2.000000000000000000 ) ) ;
#59 = EDGE_CURVE ( 'NONE', #231, #34, #137, .T. ) ;
#60 = ORIENTED_EDGE ( 'NONE', *, *, #79, .T. ) ;
#61 = FACE_OUTER_BOUND ( 'NONE', #250, .T. ) ;
#62 = ORIENTED_EDGE ( 'NONE', *, *, #90, .T. ) ;
#63 = COORDINATED_UNIVERSAL_TIME_OFFSET ( 1, 0, .AHEAD. ) ;
#64 = CC_DESIGN_PERSON_AND_ORGANIZATION_ASSIGNMENT ( #303, #284, ( #19 ) ) ;
#65 = PERSON_AND_ORGANIZATION ( #207, #178 ) ;
#66 = CALENDAR_DATE ( 2022, 20, 6 ) ;
#67 = CARTESIAN_POINT ( 'NONE',  ( 2.000000000000000000, 2.449293598294706414E-16, 2.000000000000000000 ) ) ;
#68 = PERSON_AND_ORGANIZATION_ROLE ( 'design_owner' ) ;
#69 = APPROVAL ( #235, 'NEURÈENÝ' ) ;
#70 = ORIENTED_EDGE ( 'NONE', *, *, #181, .T. ) ;
#71 = DATE_AND_TIME ( #95, #277 ) ;
#72 = LINE ( 'NONE', #99, #143 ) ;
#73 = AXIS2_PLACEMENT_3D ( 'NONE', #139, #269, #195 ) ;
#74 = DIRECTION ( 'NONE',  ( 1.224646799147353207E-16, 1.000000000000000000, -0.000000000000000000 ) ) ;
#75 = FACE_OUTER_BOUND ( 'NONE', #167, .T. ) ;
#76 = EDGE_CURVE ( 'NONE', #233, #301, #204, .T. ) ;
#77 = DIRECTION ( 'NONE',  ( 0.000000000000000000, 0.000000000000000000, 1.000000000000000000 ) ) ;
#78 = TOROIDAL_SURFACE ( 'NONE', #169, 1.200000000000000178, 0.2000000000000000111 ) ;
#79 = EDGE_CURVE ( 'NONE', #39, #231, #101, .T. ) ;
#80 =( GEOMETRIC_REPRESENTATION_CONTEXT ( 3 ) GLOBAL_UNCERTAINTY_ASSIGNED_CONTEXT ( ( #135 ) ) GLOBAL_UNIT_ASSIGNED_CONTEXT ( ( #203, #232, #175 ) ) REPRESENTATION_CONTEXT ( 'NONE', 'WORKASPACE' ) );
#81 = CYLINDRICAL_SURFACE ( 'NONE', #32, 1.000000000000000000 ) ;
#82 = ORIENTED_EDGE ( 'NONE', *, *, #120, .T. ) ;
#83 = DIRECTION ( 'NONE',  ( -0.000000000000000000, -0.000000000000000000, -1.000000000000000000 ) ) ;
#84 = VERTEX_POINT ( 'NONE', #7 ) ;
#85 = DIRECTION ( 'NONE',  ( 1.000000000000000000, 0.000000000000000000, 0.000000000000000000 ) ) ;
#86 = ORIENTED_EDGE ( 'NONE', *, *, #116, .T. ) ;
#87 = AXIS2_PLACEMENT_3D ( 'NONE', #31, #153, #85 ) ;
#88 = APPROVAL_DATE_TIME ( #71, #111 ) ;
#89 = ORIENTED_EDGE ( 'NONE', *, *, #103, .F. ) ;
#90 = EDGE_CURVE ( 'NONE', #34, #233, #25, .T. ) ;
#91 = DATE_AND_TIME ( #215, #51 ) ;
#92 = PERSON_AND_ORGANIZATION_ROLE ( 'classification_officer' ) ;
#93 = LINE ( 'NONE', #1, #176 ) ;
#94 = AXIS2_PLACEMENT_3D ( 'NONE', #145, #241, #27 ) ;
#95 = CALENDAR_DATE ( 2022, 20, 6 ) ;
#96 = DIRECTION ( 'NONE',  ( 0.000000000000000000, 0.000000000000000000, 1.000000000000000000 ) ) ;
#97 = PRODUCT ( 'd1a1', 'd1a1', '', ( #190 ) ) ;
#98 = CARTESIAN_POINT ( 'NONE',  ( -1.200000000000000178, 1.469576158976823799E-16, 2.199999999999993516 ) ) ;
#99 = CARTESIAN_POINT ( 'NONE',  ( -1.000000000000000000, 0.000000000000000000, 102.0000000000000142 ) ) ;
#100 = ADVANCED_BREP_SHAPE_REPRESENTATION ( 'd1a1', ( #6, #122 ), #80 ) ;
#101 = LINE ( 'NONE', #239, #302 ) ;
#102 = CARTESIAN_POINT ( 'NONE',  ( 1.200000000000000178, 0.000000000000000000, 1.999999999999996669 ) ) ;
#103 = EDGE_CURVE ( 'NONE', #209, #34, #72, .T. ) ;
#104 = AXIS2_PLACEMENT_3D ( 'NONE', #249, #77, #291 ) ;
#105 = AXIS2_PLACEMENT_3D ( 'NONE', #54, #125, #274 ) ;
#106 = FACE_OUTER_BOUND ( 'NONE', #17, .T. ) ;
#107 = ORIENTED_EDGE ( 'NONE', *, *, #126, .F. ) ;
#108 = CARTESIAN_POINT ( 'NONE',  ( -1.200000000000000178, 1.469576158976823799E-16, 1.999999999999996669 ) ) ;
#109 = APPLICATION_CONTEXT ( 'configuration controlled 3d designs of mechanical parts and assemblies' ) ;
#110 = ORIENTED_EDGE ( 'NONE', *, *, #181, .F. ) ;
#111 = APPROVAL ( #260, 'NEURÈENÝ' ) ;
#112 = EDGE_LOOP ( 'NONE', ( #296, #189 ) ) ;
#113 = CC_DESIGN_APPROVAL ( #227, ( #234 ) ) ;
#114 = COORDINATED_UNIVERSAL_TIME_OFFSET ( 1, 0, .AHEAD. ) ;
#115 = DIRECTION ( 'NONE',  ( 0.000000000000000000, 0.000000000000000000, 1.000000000000000000 ) ) ;
#116 = EDGE_CURVE ( 'NONE', #84, #133, #206, .T. ) ;
#117 = APPROVAL_ROLE ( '' ) ;
#118 = DIRECTION ( 'NONE',  ( 1.000000000000000000, 0.000000000000000000, 0.000000000000000000 ) ) ;
#119 = DIRECTION ( 'NONE',  ( 0.000000000000000000, 0.000000000000000000, 1.000000000000000000 ) ) ;
#120 = EDGE_CURVE ( 'NONE', #209, #39, #186, .T. ) ;
#121 = DIRECTION ( 'NONE',  ( -0.000000000000000000, -0.000000000000000000, -1.000000000000000000 ) ) ;
#122 = AXIS2_PLACEMENT_3D ( 'NONE', #168, #300, #282 ) ;
#123 = DIRECTION ( 'NONE',  ( 0.000000000000000000, 0.000000000000000000, 1.000000000000000000 ) ) ;
#124 = ORIENTED_EDGE ( 'NONE', *, *, #242, .T. ) ;
#125 = DIRECTION ( 'NONE',  ( -0.000000000000000000, -0.000000000000000000, -1.000000000000000000 ) ) ;
#126 = EDGE_CURVE ( 'NONE', #160, #84, #93, .T. ) ;
#127 = FACE_OUTER_BOUND ( 'NONE', #210, .T. ) ;
#128 = CARTESIAN_POINT ( 'NONE',  ( 0.000000000000000000, 0.000000000000000000, 2.000000000000000000 ) ) ;
#129 = ORIENTED_EDGE ( 'NONE', *, *, #90, .F. ) ;
#130 = DIRECTION ( 'NONE',  ( 0.000000000000000000, 0.000000000000000000, 1.000000000000000000 ) ) ;
#131 = ORIENTED_EDGE ( 'NONE', *, *, #170, .F. ) ;
#132 = CC_DESIGN_PERSON_AND_ORGANIZATION_ASSIGNMENT ( #305, #92, ( #55 ) ) ;
#133 = VERTEX_POINT ( 'NONE', #222 ) ;
#134 = TOROIDAL_SURFACE ( 'NONE', #104, 1.200000000000000178, 0.2000000000000000111 ) ;
#135 = UNCERTAINTY_MEASURE_WITH_UNIT (LENGTH_MEASURE( 1.000000000000000082E-05 ), #203, 'distance_accuracy_value', 'NONE');
#136 = DATE_AND_TIME ( #66, #257 ) ;
#137 = CIRCLE ( 'NONE', #295, 1.000000000000000000 ) ;
#138 = EDGE_CURVE ( 'NONE', #231, #301, #243, .T. ) ;
#139 = CARTESIAN_POINT ( 'NONE',  ( 0.000000000000000000, 0.000000000000000000, 2.000000000000000000 ) ) ;
#140 = CIRCLE ( 'NONE', #87, 1.000000000000000000 ) ;
#141 = CARTESIAN_POINT ( 'NONE',  ( 0.000000000000000000, 0.000000000000000000, 2.000000000000000000 ) ) ;
#142 = DATE_TIME_ROLE ( 'classification_date' ) ;
#143 = VECTOR ( 'NONE', #200, 1000.000000000000000 ) ;
#144 = FACE_OUTER_BOUND ( 'NONE', #252, .T. ) ;
#145 = CARTESIAN_POINT ( 'NONE',  ( 0.000000000000000000, 0.000000000000000000, 102.0000000000000142 ) ) ;
#146 = DIRECTION ( 'NONE',  ( 0.000000000000000000, 0.000000000000000000, 1.000000000000000000 ) ) ;
#147 = CC_DESIGN_APPROVAL ( #111, ( #55 ) ) ;
#148 = CARTESIAN_POINT ( 'NONE',  ( 1.000000000000000000, 1.224646799147353207E-16, 2.199999999999993516 ) ) ;
#149 = CARTESIAN_POINT ( 'NONE',  ( -1.000000000000000000, 0.000000000000000000, 102.0000000000000142 ) ) ;
#150 = AXIS2_PLACEMENT_3D ( 'NONE', #44, #96, #263 ) ;
#151 = PRODUCT_RELATED_PRODUCT_CATEGORY ( 'detail', '', ( #97 ) ) ;
#152 = EDGE_LOOP ( 'NONE', ( #18, #13, #299, #254 ) ) ;
#153 = DIRECTION ( 'NONE',  ( 0.000000000000000000, 0.000000000000000000, 1.000000000000000000 ) ) ;
#154 = ORIENTED_EDGE ( 'NONE', *, *, #76, .F. ) ;
#155 = CARTESIAN_POINT ( 'NONE',  ( 0.000000000000000000, 0.000000000000000000, 2.000000000000000000 ) ) ;
#156 = ORIENTED_EDGE ( 'NONE', *, *, #126, .T. ) ;
#157 = ADVANCED_FACE ( 'NONE', ( #75 ), #78, .F. ) ;
#158 = AXIS2_PLACEMENT_3D ( 'NONE', #24, #171, #48 ) ;
#159 = FACE_BOUND ( 'NONE', #41, .T. ) ;
#160 = VERTEX_POINT ( 'NONE', #67 ) ;
#161 = DATE_TIME_ROLE ( 'creation_date' ) ;
#162 = PERSON_AND_ORGANIZATION_ROLE ( 'creator' ) ;
#163 = AXIS2_PLACEMENT_3D ( 'NONE', #58, #130, #53 ) ;
#164 = CALENDAR_DATE ( 2022, 20, 6 ) ;
#165 = DIRECTION ( 'NONE',  ( 1.000000000000000000, 0.000000000000000000, 0.000000000000000000 ) ) ;
#166 = APPLICATION_CONTEXT ( 'configuration controlled 3d designs of mechanical parts and assemblies' ) ;
#167 = EDGE_LOOP ( 'NONE', ( #15, #62, #110, #283 ) ) ;
#168 = CARTESIAN_POINT ( 'NONE',  ( 0.000000000000000000, 0.000000000000000000, 0.000000000000000000 ) ) ;
#169 = AXIS2_PLACEMENT_3D ( 'NONE', #50, #146, #244 ) ;
#170 = EDGE_CURVE ( 'NONE', #185, #160, #225, .T. ) ;
#171 = DIRECTION ( 'NONE',  ( 0.000000000000000000, 0.000000000000000000, 1.000000000000000000 ) ) ;
#172 = DIRECTION ( 'NONE',  ( 1.000000000000000000, 0.000000000000000000, 0.000000000000000000 ) ) ;
#173 = PRODUCT_DEFINITION_SHAPE ( 'NONE', 'NONE',  #234 ) ;
#174 = CC_DESIGN_APPROVAL ( #69, ( #19 ) ) ;
#175 =( NAMED_UNIT ( * ) SI_UNIT ( $, .STERADIAN. ) SOLID_ANGLE_UNIT ( ) );
#176 = VECTOR ( 'NONE', #121, 1000.000000000000000 ) ;
#177 = CC_DESIGN_PERSON_AND_ORGANIZATION_ASSIGNMENT ( #65, #162, ( #234 ) ) ;
#178 = ORGANIZATION ( 'NEURÈENÝ', 'NEURÈENÝ', '' ) ;
#179 = CARTESIAN_POINT ( 'NONE',  ( 0.000000000000000000, 0.000000000000000000, 102.0000000000000142 ) ) ;
#180 = EDGE_LOOP ( 'NONE', ( #212, #183 ) ) ;
#181 = EDGE_CURVE ( 'NONE', #301, #233, #4, .T. ) ;
#182 = DIRECTION ( 'NONE',  ( -1.000000000000000000, 0.000000000000000000, 0.000000000000000000 ) ) ;
#183 = ORIENTED_EDGE ( 'NONE', *, *, #214, .T. ) ;
#184 = DIRECTION ( 'NONE',  ( -1.000000000000000000, 0.000000000000000000, 0.000000000000000000 ) ) ;
#185 = VERTEX_POINT ( 'NONE', #16 ) ;
#186 = CIRCLE ( 'NONE', #94, 1.000000000000000000 ) ;
#187 = AXIS2_PLACEMENT_3D ( 'NONE', #141, #267, #261 ) ;
#188 = APPROVAL_DATE_TIME ( #45, #227 ) ;
#189 = ORIENTED_EDGE ( 'NONE', *, *, #116, .F. ) ;
#190 = MECHANICAL_CONTEXT ( 'NONE', #109, 'mechanical' ) ;
#191 = ADVANCED_FACE ( 'NONE', ( #246 ), #81, .T. ) ;
#192 = PERSON_AND_ORGANIZATION ( #207, #178 ) ;
#193 = AXIS2_PLACEMENT_3D ( 'NONE', #128, #38, #226 ) ;
#194 = APPROVAL_DATE_TIME ( #91, #69 ) ;
#195 = DIRECTION ( 'NONE',  ( 1.000000000000000000, 0.000000000000000000, 0.000000000000000000 ) ) ;
#196 = APPROVAL_STATUS ( 'not_yet_approved' ) ;
#197 = ADVANCED_FACE ( 'NONE', ( #127 ), #298, .T. ) ;
#198 = CARTESIAN_POINT ( 'NONE',  ( -1.000000000000000000, 0.000000000000000000, 2.199999999999993516 ) ) ;
#199 = APPROVAL_PERSON_ORGANIZATION ( #213, #69, #117 ) ;
#200 = DIRECTION ( 'NONE',  ( -0.000000000000000000, -0.000000000000000000, -1.000000000000000000 ) ) ;
#201 = CARTESIAN_POINT ( 'NONE',  ( 1.200000000000000178, 0.000000000000000000, 2.199999999999993516 ) ) ;
#202 = DIRECTION ( 'NONE',  ( 0.000000000000000000, -1.000000000000000000, 0.000000000000000000 ) ) ;
#203 =( LENGTH_UNIT ( ) NAMED_UNIT ( * ) SI_UNIT ( .MILLI., .METRE. ) );
#204 = CIRCLE ( 'NONE', #187, 1.200000000000000178 ) ;
#205 = DIRECTION ( 'NONE',  ( -0.000000000000000000, -0.000000000000000000, -1.000000000000000000 ) ) ;
#206 = CIRCLE ( 'NONE', #11, 2.000000000000000000 ) ;
#207 = PERSON ( 'NEURÈENÝ', 'NEURÈENÝ', 'NEURÈENÝ', ('NEURÈENÝ'), ('NEURÈENÝ'), ('NEURÈENÝ') ) ;
#208 = DIRECTION ( 'NONE',  ( 0.000000000000000000, 0.000000000000000000, 1.000000000000000000 ) ) ;
#209 = VERTEX_POINT ( 'NONE', #149 ) ;
#210 = EDGE_LOOP ( 'NONE', ( #237, #156, #86, #306 ) ) ;
#211 = PERSON_AND_ORGANIZATION ( #207, #178 ) ;
#212 = ORIENTED_EDGE ( 'NONE', *, *, #170, .T. ) ;
#213 = PERSON_AND_ORGANIZATION ( #207, #178 ) ;
#214 = EDGE_CURVE ( 'NONE', #160, #185, #28, .T. ) ;
#215 = CALENDAR_DATE ( 2022, 20, 6 ) ;
#216 = ORIENTED_EDGE ( 'NONE', *, *, #138, .T. ) ;
#217 = ADVANCED_FACE ( 'NONE', ( #61 ), #134, .F. ) ;
#218 = PERSON_AND_ORGANIZATION_ROLE ( 'design_supplier' ) ;
#219 = FACE_OUTER_BOUND ( 'NONE', #112, .T. ) ;
#220 = CARTESIAN_POINT ( 'NONE',  ( 0.000000000000000000, 0.000000000000000000, 2.199999999999993516 ) ) ;
#221 = AXIS2_PLACEMENT_3D ( 'NONE', #155, #8, #184 ) ;
#222 = CARTESIAN_POINT ( 'NONE',  ( -2.000000000000000000, 0.000000000000000000, 0.000000000000000000 ) ) ;
#223 = DIRECTION ( 'NONE',  ( -1.000000000000000000, 0.000000000000000000, 0.000000000000000000 ) ) ;
#224 = FACE_OUTER_BOUND ( 'NONE', #180, .T. ) ;
#225 = CIRCLE ( 'NONE', #73, 2.000000000000000000 ) ;
#226 = DIRECTION ( 'NONE',  ( 1.000000000000000000, 0.000000000000000000, 0.000000000000000000 ) ) ;
#227 = APPROVAL ( #196, 'NEURÈENÝ' ) ;
#228 = CC_DESIGN_SECURITY_CLASSIFICATION ( #55, ( #19 ) ) ;
#229 = CARTESIAN_POINT ( 'NONE',  ( -2.000000000000000000, 0.000000000000000000, 2.000000000000000000 ) ) ;
#230 = EDGE_LOOP ( 'NONE', ( #82, #124 ) ) ;
#231 = VERTEX_POINT ( 'NONE', #148 ) ;
#232 =( NAMED_UNIT ( * ) PLANE_ANGLE_UNIT ( ) SI_UNIT ( $, .RADIAN. ) );
#233 = VERTEX_POINT ( 'NONE', #108 ) ;
#234 = PRODUCT_DEFINITION ( 'NEZNÁMÝ', '', #19, #256 ) ;
#235 = APPROVAL_STATUS ( 'not_yet_approved' ) ;
#236 = PERSON_AND_ORGANIZATION ( #207, #178 ) ;
#237 = ORIENTED_EDGE ( 'NONE', *, *, #214, .F. ) ;
#238 = DATE_AND_TIME ( #265, #37 ) ;
#239 = CARTESIAN_POINT ( 'NONE',  ( 1.000000000000000000, 1.224646799147353207E-16, 102.0000000000000142 ) ) ;
#240 = FACE_OUTER_BOUND ( 'NONE', #230, .T. ) ;
#241 = DIRECTION ( 'NONE',  ( 0.000000000000000000, 0.000000000000000000, 1.000000000000000000 ) ) ;
#242 = EDGE_CURVE ( 'NONE', #39, #209, #140, .T. ) ;
#243 = CIRCLE ( 'NONE', #272, 0.2000000000000000944 ) ;
#244 = DIRECTION ( 'NONE',  ( 1.000000000000000000, 0.000000000000000000, 0.000000000000000000 ) ) ;
#245 = AXIS2_PLACEMENT_3D ( 'NONE', #98, #74, #49 ) ;
#246 = FACE_OUTER_BOUND ( 'NONE', #152, .T. ) ;
#247 = DIRECTION ( 'NONE',  ( 1.000000000000000000, 0.000000000000000000, 0.000000000000000000 ) ) ;
#248 = VECTOR ( 'NONE', #205, 1000.000000000000000 ) ;
#249 = CARTESIAN_POINT ( 'NONE',  ( 0.000000000000000000, 0.000000000000000000, 2.199999999999993516 ) ) ;
#250 = EDGE_LOOP ( 'NONE', ( #129, #275, #216, #154 ) ) ;
#251 = DIRECTION ( 'NONE',  ( 1.000000000000000000, 0.000000000000000000, 0.000000000000000000 ) ) ;
#252 = EDGE_LOOP ( 'NONE', ( #278, #60, #294, #89 ) ) ;
#253 = DIRECTION ( 'NONE',  ( -0.000000000000000000, -0.000000000000000000, -1.000000000000000000 ) ) ;
#254 = ORIENTED_EDGE ( 'NONE', *, *, #46, .T. ) ;
#255 = COORDINATED_UNIVERSAL_TIME_OFFSET ( 1, 0, .AHEAD. ) ;
#256 = DESIGN_CONTEXT ( 'detailed design', #166, 'design' ) ;
#257 = LOCAL_TIME ( 12, 21, 0.000000000000000000, #258 ) ;
#258 = COORDINATED_UNIVERSAL_TIME_OFFSET ( 1, 0, .AHEAD. ) ;
#259 = AXIS2_PLACEMENT_3D ( 'NONE', #266, #115, #118 ) ;
#260 = APPROVAL_STATUS ( 'not_yet_approved' ) ;
#261 = DIRECTION ( 'NONE',  ( 1.000000000000000000, 0.000000000000000000, 0.000000000000000000 ) ) ;
#262 = APPLICATION_PROTOCOL_DEFINITION ( 'international standard', 'config_control_design', 1994, #166 ) ;
#263 = DIRECTION ( 'NONE',  ( 1.000000000000000000, 0.000000000000000000, -0.000000000000000000 ) ) ;
#264 = AXIS2_PLACEMENT_3D ( 'NONE', #40, #208, #251 ) ;
#265 = CALENDAR_DATE ( 2022, 20, 6 ) ;
#266 = CARTESIAN_POINT ( 'NONE',  ( 0.000000000000000000, 0.000000000000000000, 2.199999999999993516 ) ) ;
#267 = DIRECTION ( 'NONE',  ( -0.000000000000000000, -0.000000000000000000, -1.000000000000000000 ) ) ;
#268 = ADVANCED_FACE ( 'NONE', ( #159, #224 ), #14, .T. ) ;
#269 = DIRECTION ( 'NONE',  ( 0.000000000000000000, 0.000000000000000000, 1.000000000000000000 ) ) ;
#270 = EDGE_CURVE ( 'NONE', #185, #133, #35, .T. ) ;
#271 = APPLICATION_PROTOCOL_DEFINITION ( 'international standard', 'config_control_design', 1994, #109 ) ;
#272 = AXIS2_PLACEMENT_3D ( 'NONE', #201, #202, #290 ) ;
#273 = AXIS2_PLACEMENT_3D ( 'NONE', #26, #29, #223 ) ;
#274 = DIRECTION ( 'NONE',  ( -1.000000000000000000, 0.000000000000000000, 0.000000000000000000 ) ) ;
#275 = ORIENTED_EDGE ( 'NONE', *, *, #59, .F. ) ;
#276 = ORIENTED_EDGE ( 'NONE', *, *, #297, .T. ) ;
#277 = LOCAL_TIME ( 12, 21, 0.000000000000000000, #255 ) ;
#278 = ORIENTED_EDGE ( 'NONE', *, *, #242, .F. ) ;
#279 = SHAPE_DEFINITION_REPRESENTATION ( #173, #100 ) ;
#280 = APPROVAL_PERSON_ORGANIZATION ( #211, #111, #307 ) ;
#281 = SECURITY_CLASSIFICATION_LEVEL ( 'unclassified' ) ;
#282 = DIRECTION ( 'NONE',  ( 1.000000000000000000, 0.000000000000000000, 0.000000000000000000 ) ) ;
#283 = ORIENTED_EDGE ( 'NONE', *, *, #138, .F. ) ;
#284 = PERSON_AND_ORGANIZATION_ROLE ( 'creator' ) ;
#285 = CARTESIAN_POINT ( 'NONE',  ( 1.000000000000000000, 1.224646799147353207E-16, 102.0000000000000142 ) ) ;
#286 = AXIS2_PLACEMENT_3D ( 'NONE', #292, #253, #247 ) ;
#287 = ADVANCED_FACE ( 'NONE', ( #106 ), #10, .T. ) ;
#288 = CARTESIAN_POINT ( 'NONE',  ( 0.000000000000000000, 0.000000000000000000, 0.000000000000000000 ) ) ;
#289 = CLOSED_SHELL ( 'NONE', ( #157, #43, #197, #287, #268, #33, #191, #30, #217 ) ) ;
#290 = DIRECTION ( 'NONE',  ( 0.000000000000000000, 0.000000000000000000, -1.000000000000000000 ) ) ;
#291 = DIRECTION ( 'NONE',  ( 1.000000000000000000, 0.000000000000000000, 0.000000000000000000 ) ) ;
#292 = CARTESIAN_POINT ( 'NONE',  ( 0.000000000000000000, 0.000000000000000000, 2.000000000000000000 ) ) ;
#293 = APPROVAL_PERSON_ORGANIZATION ( #236, #227, #21 ) ;
#294 = ORIENTED_EDGE ( 'NONE', *, *, #59, .T. ) ;
#295 = AXIS2_PLACEMENT_3D ( 'NONE', #220, #119, #172 ) ;
#296 = ORIENTED_EDGE ( 'NONE', *, *, #297, .F. ) ;
#297 = EDGE_CURVE ( 'NONE', #133, #84, #42, .T. ) ;
#298 = CYLINDRICAL_SURFACE ( 'NONE', #105, 2.000000000000000000 ) ;
#299 = ORIENTED_EDGE ( 'NONE', *, *, #103, .T. ) ;
#300 = DIRECTION ( 'NONE',  ( 0.000000000000000000, 0.000000000000000000, 1.000000000000000000 ) ) ;
#301 = VERTEX_POINT ( 'NONE', #102 ) ;
#302 = VECTOR ( 'NONE', #3, 1000.000000000000000 ) ;
#303 = PERSON_AND_ORGANIZATION ( #207, #178 ) ;
#304 = COORDINATED_UNIVERSAL_TIME_OFFSET ( 1, 0, .AHEAD. ) ;
#305 = PERSON_AND_ORGANIZATION ( #207, #178 ) ;
#306 = ORIENTED_EDGE ( 'NONE', *, *, #270, .F. ) ;
#307 = APPROVAL_ROLE ( '' ) ;
ENDSEC;
END-ISO-10303-21;
