ISO-10303-21;
HEADER;
FILE_DESCRIPTION (( 'STEP AP203' ),
    '1' );
FILE_NAME ('86a5.STEP',
    '2022-06-20T10:22:52',
    ( '' ),
    ( '' ),
    'SwSTEP 2.0',
    'SolidWorks 2019',
    '' );
FILE_SCHEMA (( 'CONFIG_CONTROL_DESIGN' ));
ENDSEC;

DATA;
#1 = PRODUCT_DEFINITION_SHAPE ( 'NONE', 'NONE',  #36 ) ;
#2 = DATE_TIME_ROLE ( 'classification_date' ) ;
#3 = ORIENTED_EDGE ( 'NONE', *, *, #288, .T. ) ;
#4 = COORDINATED_UNIVERSAL_TIME_OFFSET ( 1, 0, .AHEAD. ) ;
#5 = CARTESIAN_POINT ( 'NONE',  ( 0.8000000000000000444, 9.797174393178826150E-17, 101.5000000000000000 ) ) ;
#6 = EDGE_CURVE ( 'NONE', #124, #182, #150, .T. ) ;
#7 = CIRCLE ( 'NONE', #234, 0.2000000000000000944 ) ;
#8 = CARTESIAN_POINT ( 'NONE',  ( 1.500000000000000222, 1.836970198721030181E-16, 1.500000000000000000 ) ) ;
#9 = CC_DESIGN_DATE_AND_TIME_ASSIGNMENT ( #128, #2, ( #45 ) ) ;
#10 = DIRECTION ( 'NONE',  ( 0.000000000000000000, -1.000000000000000000, 0.000000000000000000 ) ) ;
#11 = ADVANCED_FACE ( 'NONE', ( #204 ), #227, .T. ) ;
#12 = LINE ( 'NONE', #8, #14 ) ;
#13 = FACE_OUTER_BOUND ( 'NONE', #194, .T. ) ;
#14 = VECTOR ( 'NONE', #108, 1000.000000000000000 ) ;
#15 = DIRECTION ( 'NONE',  ( -1.000000000000000000, 0.000000000000000000, 0.000000000000000000 ) ) ;
#16 = CARTESIAN_POINT ( 'NONE',  ( 0.000000000000000000, 0.000000000000000000, 0.000000000000000000 ) ) ;
#17 = CALENDAR_DATE ( 2022, 20, 6 ) ;
#18 = ORIENTED_EDGE ( 'NONE', *, *, #52, .F. ) ;
#19 = APPLICATION_CONTEXT ( 'configuration controlled 3d designs of mechanical parts and assemblies' ) ;
#20 = LOCAL_TIME ( 12, 22, 52.00000000000000000, #306 ) ;
#21 = DESIGN_CONTEXT ( 'detailed design', #19, 'design' ) ;
#22 =( LENGTH_UNIT ( ) NAMED_UNIT ( * ) SI_UNIT ( .MILLI., .METRE. ) );
#23 = CALENDAR_DATE ( 2022, 20, 6 ) ;
#24 = CIRCLE ( 'NONE', #68, 1.500000000000000222 ) ;
#25 = UNCERTAINTY_MEASURE_WITH_UNIT (LENGTH_MEASURE( 1.000000000000000082E-05 ), #22, 'distance_accuracy_value', 'NONE');
#26 = ADVANCED_FACE ( 'NONE', ( #13 ), #286, .F. ) ;
#27 = EDGE_CURVE ( 'NONE', #274, #224, #56, .T. ) ;
#28 = PRODUCT_DEFINITION_FORMATION_WITH_SPECIFIED_SOURCE ( 'LIBOVOLNÝ', '', #121, .NOT_KNOWN. ) ;
#29 = EDGE_LOOP ( 'NONE', ( #242, #151 ) ) ;
#30 = CC_DESIGN_PERSON_AND_ORGANIZATION_ASSIGNMENT ( #287, #96, ( #28 ) ) ;
#31 = ORIENTED_EDGE ( 'NONE', *, *, #46, .T. ) ;
#32 = DIRECTION ( 'NONE',  ( 1.000000000000000000, 0.000000000000000000, 0.000000000000000000 ) ) ;
#33 = CARTESIAN_POINT ( 'NONE',  ( -1.500000000000000222, 0.000000000000000000, 1.500000000000000000 ) ) ;
#34 = CIRCLE ( 'NONE', #122, 0.2000000000000000944 ) ;
#35 = APPROVAL_PERSON_ORGANIZATION ( #94, #123, #72 ) ;
#36 = PRODUCT_DEFINITION ( 'NEZNÁMÝ', '', #28, #21 ) ;
#37 = DIRECTION ( 'NONE',  ( 0.000000000000000000, 0.000000000000000000, 1.000000000000000000 ) ) ;
#38 = ORIENTED_EDGE ( 'NONE', *, *, #215, .F. ) ;
#39 = DIRECTION ( 'NONE',  ( 1.000000000000000000, 0.000000000000000000, -0.000000000000000000 ) ) ;
#40 = CARTESIAN_POINT ( 'NONE',  ( 0.000000000000000000, 0.000000000000000000, 1.500000000000000000 ) ) ;
#41 = CARTESIAN_POINT ( 'NONE',  ( 0.000000000000000000, 0.000000000000000000, 101.5000000000000000 ) ) ;
#42 = AXIS2_PLACEMENT_3D ( 'NONE', #63, #275, #15 ) ;
#43 = EDGE_CURVE ( 'NONE', #294, #193, #118, .T. ) ;
#44 = CARTESIAN_POINT ( 'NONE',  ( 0.000000000000000000, 0.000000000000000000, 1.500000000000000000 ) ) ;
#45 = SECURITY_CLASSIFICATION ( '', '', #95 ) ;
#46 = EDGE_CURVE ( 'NONE', #193, #294, #24, .T. ) ;
#47 = CALENDAR_DATE ( 2022, 20, 6 ) ;
#48 = EDGE_LOOP ( 'NONE', ( #163, #282 ) ) ;
#49 = FACE_OUTER_BOUND ( 'NONE', #271, .T. ) ;
#50 = DIRECTION ( 'NONE',  ( 0.000000000000000000, 0.000000000000000000, 1.000000000000000000 ) ) ;
#51 = PERSON_AND_ORGANIZATION_ROLE ( 'classification_officer' ) ;
#52 = EDGE_CURVE ( 'NONE', #224, #274, #239, .T. ) ;
#53 = APPROVAL_STATUS ( 'not_yet_approved' ) ;
#54 = VECTOR ( 'NONE', #80, 1000.000000000000000 ) ;
#55 = LOCAL_TIME ( 12, 22, 52.00000000000000000, #4 ) ;
#56 = CIRCLE ( 'NONE', #77, 0.8000000000000000444 ) ;
#57 = ORIENTED_EDGE ( 'NONE', *, *, #169, .F. ) ;
#58 = ADVANCED_BREP_SHAPE_REPRESENTATION ( '86a5', ( #200, #247 ), #195 ) ;
#59 = EDGE_LOOP ( 'NONE', ( #145, #104 ) ) ;
#60 = LINE ( 'NONE', #197, #187 ) ;
#61 = VERTEX_POINT ( 'NONE', #177 ) ;
#62 = AXIS2_PLACEMENT_3D ( 'NONE', #40, #208, #303 ) ;
#63 = CARTESIAN_POINT ( 'NONE',  ( 0.000000000000000000, 0.000000000000000000, 101.5000000000000000 ) ) ;
#64 = ORIENTED_EDGE ( 'NONE', *, *, #156, .F. ) ;
#65 = CARTESIAN_POINT ( 'NONE',  ( 0.000000000000000000, 0.000000000000000000, 101.5000000000000000 ) ) ;
#66 = CARTESIAN_POINT ( 'NONE',  ( 0.8000000000000000444, 9.797174393178826150E-17, 101.5000000000000000 ) ) ;
#67 = ORIENTED_EDGE ( 'NONE', *, *, #199, .F. ) ;
#68 = AXIS2_PLACEMENT_3D ( 'NONE', #254, #137, #229 ) ;
#69 = DIRECTION ( 'NONE',  ( 1.000000000000000000, 0.000000000000000000, 0.000000000000000000 ) ) ;
#70 = EDGE_CURVE ( 'NONE', #100, #114, #143, .T. ) ;
#71 = COORDINATED_UNIVERSAL_TIME_OFFSET ( 1, 0, .AHEAD. ) ;
#72 = APPROVAL_ROLE ( '' ) ;
#73 = DATE_TIME_ROLE ( 'creation_date' ) ;
#74 = PRODUCT_RELATED_PRODUCT_CATEGORY ( 'detail', '', ( #121 ) ) ;
#75 = ADVANCED_FACE ( 'NONE', ( #127 ), #201, .F. ) ;
#76 = CC_DESIGN_APPROVAL ( #189, ( #45 ) ) ;
#77 = AXIS2_PLACEMENT_3D ( 'NONE', #157, #300, #86 ) ;
#78 = PERSON_AND_ORGANIZATION ( #97, #305 ) ;
#79 = EDGE_CURVE ( 'NONE', #182, #124, #90, .T. ) ;
#80 = DIRECTION ( 'NONE',  ( -0.000000000000000000, -0.000000000000000000, -1.000000000000000000 ) ) ;
#81 = ORIENTED_EDGE ( 'NONE', *, *, #288, .F. ) ;
#82 = DIRECTION ( 'NONE',  ( 1.000000000000000000, 0.000000000000000000, 0.000000000000000000 ) ) ;
#83 = CARTESIAN_POINT ( 'NONE',  ( 0.000000000000000000, 0.000000000000000000, 1.700000000000007061 ) ) ;
#84 = DIRECTION ( 'NONE',  ( 1.000000000000000000, 0.000000000000000000, 0.000000000000000000 ) ) ;
#85 = CC_DESIGN_PERSON_AND_ORGANIZATION_ASSIGNMENT ( #235, #117, ( #28 ) ) ;
#86 = DIRECTION ( 'NONE',  ( 1.000000000000000000, 0.000000000000000000, 0.000000000000000000 ) ) ;
#87 = CARTESIAN_POINT ( 'NONE',  ( 0.000000000000000000, 0.000000000000000000, 1.500000000000000000 ) ) ;
#88 = ADVANCED_FACE ( 'NONE', ( #155 ), #249, .T. ) ;
#89 = EDGE_LOOP ( 'NONE', ( #38, #178, #232, #259 ) ) ;
#90 = CIRCLE ( 'NONE', #266, 1.500000000000000222 ) ;
#91 = DATE_AND_TIME ( #47, #192 ) ;
#92 = AXIS2_PLACEMENT_3D ( 'NONE', #164, #50, #304 ) ;
#93 = DIRECTION ( 'NONE',  ( -1.000000000000000000, 0.000000000000000000, 0.000000000000000000 ) ) ;
#94 = PERSON_AND_ORGANIZATION ( #97, #305 ) ;
#95 = SECURITY_CLASSIFICATION_LEVEL ( 'unclassified' ) ;
#96 = PERSON_AND_ORGANIZATION_ROLE ( 'design_supplier' ) ;
#97 = PERSON ( 'NEURÈENÝ', 'NEURÈENÝ', 'NEURÈENÝ', ('NEURÈENÝ'), ('NEURÈENÝ'), ('NEURÈENÝ') ) ;
#98 = ORIENTED_EDGE ( 'NONE', *, *, #215, .T. ) ;
#99 = AXIS2_PLACEMENT_3D ( 'NONE', #41, #102, #295 ) ;
#100 = VERTEX_POINT ( 'NONE', #203 ) ;
#101 = AXIS2_PLACEMENT_3D ( 'NONE', #248, #301, #279 ) ;
#102 = DIRECTION ( 'NONE',  ( 0.000000000000000000, 0.000000000000000000, 1.000000000000000000 ) ) ;
#103 = CARTESIAN_POINT ( 'NONE',  ( -1.000000000000000000, 1.224646799147353207E-16, 1.500000000000003553 ) ) ;
#104 = ORIENTED_EDGE ( 'NONE', *, *, #52, .T. ) ;
#105 = CARTESIAN_POINT ( 'NONE',  ( 1.500000000000000222, 1.836970198721030181E-16, 1.500000000000000000 ) ) ;
#106 = CLOSED_SHELL ( 'NONE', ( #26, #111, #11, #88, #263, #75, #267, #133, #269 ) ) ;
#107 = ORIENTED_EDGE ( 'NONE', *, *, #70, .F. ) ;
#108 = DIRECTION ( 'NONE',  ( -0.000000000000000000, -0.000000000000000000, -1.000000000000000000 ) ) ;
#109 = AXIS2_PLACEMENT_3D ( 'NONE', #83, #243, #32 ) ;
#110 = DIRECTION ( 'NONE',  ( 0.000000000000000000, 0.000000000000000000, 1.000000000000000000 ) ) ;
#111 = ADVANCED_FACE ( 'NONE', ( #272 ), #281, .T. ) ;
#112 = DIRECTION ( 'NONE',  ( 0.000000000000000000, 0.000000000000000000, 1.000000000000000000 ) ) ;
#113 = DIRECTION ( 'NONE',  ( 0.000000000000000000, 0.000000000000000000, 1.000000000000000000 ) ) ;
#114 = VERTEX_POINT ( 'NONE', #131 ) ;
#115 = PERSON_AND_ORGANIZATION_ROLE ( 'design_owner' ) ;
#116 = AXIS2_PLACEMENT_3D ( 'NONE', #165, #113, #207 ) ;
#117 = PERSON_AND_ORGANIZATION_ROLE ( 'creator' ) ;
#118 = CIRCLE ( 'NONE', #159, 1.500000000000000222 ) ;
#119 = COORDINATED_UNIVERSAL_TIME_OFFSET ( 1, 0, .AHEAD. ) ;
#120 = CC_DESIGN_PERSON_AND_ORGANIZATION_ASSIGNMENT ( #167, #51, ( #45 ) ) ;
#121 = PRODUCT ( '86a5', '86a5', '', ( #210 ) ) ;
#122 = AXIS2_PLACEMENT_3D ( 'NONE', #146, #245, #179 ) ;
#123 = APPROVAL ( #53, 'NEURÈENÝ' ) ;
#124 = VERTEX_POINT ( 'NONE', #152 ) ;
#125 = ORIENTED_EDGE ( 'NONE', *, *, #70, .T. ) ;
#126 = DIRECTION ( 'NONE',  ( -0.000000000000000000, -0.000000000000000000, -1.000000000000000000 ) ) ;
#127 = FACE_OUTER_BOUND ( 'NONE', #48, .T. ) ;
#128 = DATE_AND_TIME ( #291, #55 ) ;
#129 = ORIENTED_EDGE ( 'NONE', *, *, #139, .F. ) ;
#130 = DIRECTION ( 'NONE',  ( -0.000000000000000000, -0.000000000000000000, -1.000000000000000000 ) ) ;
#131 = CARTESIAN_POINT ( 'NONE',  ( -0.8000000000000000444, 0.000000000000000000, 1.700000000000007061 ) ) ;
#132 = DIRECTION ( 'NONE',  ( 0.000000000000000000, 0.000000000000000000, 1.000000000000000000 ) ) ;
#133 = ADVANCED_FACE ( 'NONE', ( #196 ), #278, .T. ) ;
#134 = DIRECTION ( 'NONE',  ( 0.000000000000000000, 0.000000000000000000, 1.000000000000000000 ) ) ;
#135 = ORIENTED_EDGE ( 'NONE', *, *, #169, .T. ) ;
#136 = PERSON_AND_ORGANIZATION_ROLE ( 'creator' ) ;
#137 = DIRECTION ( 'NONE',  ( 0.000000000000000000, 0.000000000000000000, 1.000000000000000000 ) ) ;
#138 = CARTESIAN_POINT ( 'NONE',  ( -1.500000000000000222, 0.000000000000000000, 0.000000000000000000 ) ) ;
#139 = EDGE_CURVE ( 'NONE', #114, #230, #34, .T. ) ;
#140 = DATE_AND_TIME ( #23, #173 ) ;
#141 = FACE_OUTER_BOUND ( 'NONE', #202, .T. ) ;
#142 = CARTESIAN_POINT ( 'NONE',  ( 0.000000000000000000, 0.000000000000000000, 101.5000000000000000 ) ) ;
#143 = CIRCLE ( 'NONE', #184, 0.8000000000000000444 ) ;
#144 = CIRCLE ( 'NONE', #162, 1.000000000000000000 ) ;
#145 = ORIENTED_EDGE ( 'NONE', *, *, #27, .T. ) ;
#146 = CARTESIAN_POINT ( 'NONE',  ( -1.000000000000000000, 1.224646799147353207E-16, 1.700000000000007061 ) ) ;
#147 = APPROVAL_ROLE ( '' ) ;
#148 = EDGE_LOOP ( 'NONE', ( #174, #98, #31, #64 ) ) ;
#149 = FACE_OUTER_BOUND ( 'NONE', #29, .T. ) ;
#150 = CIRCLE ( 'NONE', #290, 1.500000000000000222 ) ;
#151 = ORIENTED_EDGE ( 'NONE', *, *, #79, .T. ) ;
#152 = CARTESIAN_POINT ( 'NONE',  ( -1.500000000000000222, 0.000000000000000000, 1.500000000000000000 ) ) ;
#153 = AXIS2_PLACEMENT_3D ( 'NONE', #191, #284, #188 ) ;
#154 = EDGE_LOOP ( 'NONE', ( #18, #244, #125, #276 ) ) ;
#155 = FACE_OUTER_BOUND ( 'NONE', #89, .T. ) ;
#156 = EDGE_CURVE ( 'NONE', #124, #294, #293, .T. ) ;
#157 = CARTESIAN_POINT ( 'NONE',  ( 0.000000000000000000, 0.000000000000000000, 101.5000000000000000 ) ) ;
#158 = CARTESIAN_POINT ( 'NONE',  ( 0.000000000000000000, 0.000000000000000000, 0.000000000000000000 ) ) ;
#159 = AXIS2_PLACEMENT_3D ( 'NONE', #16, #112, #160 ) ;
#160 = DIRECTION ( 'NONE',  ( 1.000000000000000000, 0.000000000000000000, 0.000000000000000000 ) ) ;
#161 =( NAMED_UNIT ( * ) PLANE_ANGLE_UNIT ( ) SI_UNIT ( $, .RADIAN. ) );
#162 = AXIS2_PLACEMENT_3D ( 'NONE', #87, #130, #183 ) ;
#163 = ORIENTED_EDGE ( 'NONE', *, *, #43, .F. ) ;
#164 = CARTESIAN_POINT ( 'NONE',  ( 0.000000000000000000, 0.000000000000000000, 1.500000000000000000 ) ) ;
#165 = CARTESIAN_POINT ( 'NONE',  ( 0.000000000000000000, 0.000000000000000000, 1.700000000000007061 ) ) ;
#166 = CIRCLE ( 'NONE', #153, 1.000000000000000000 ) ;
#167 = PERSON_AND_ORGANIZATION ( #97, #305 ) ;
#168 = APPLICATION_PROTOCOL_DEFINITION ( 'international standard', 'config_control_design', 1994, #19 ) ;
#169 = EDGE_CURVE ( 'NONE', #61, #230, #144, .T. ) ;
#170 = CC_DESIGN_PERSON_AND_ORGANIZATION_ASSIGNMENT ( #231, #115, ( #121 ) ) ;
#171 = APPROVAL_STATUS ( 'not_yet_approved' ) ;
#172 = CC_DESIGN_PERSON_AND_ORGANIZATION_ASSIGNMENT ( #237, #136, ( #36 ) ) ;
#173 = LOCAL_TIME ( 12, 22, 52.00000000000000000, #71 ) ;
#174 = ORIENTED_EDGE ( 'NONE', *, *, #79, .F. ) ;
#175 = FACE_BOUND ( 'NONE', #292, .T. ) ;
#176 = ORIENTED_EDGE ( 'NONE', *, *, #27, .F. ) ;
#177 = CARTESIAN_POINT ( 'NONE',  ( 1.000000000000000000, 0.000000000000000000, 1.500000000000003553 ) ) ;
#178 = ORIENTED_EDGE ( 'NONE', *, *, #6, .F. ) ;
#179 = DIRECTION ( 'NONE',  ( -1.000000000000000000, 1.224646799147351975E-16, 0.000000000000000000 ) ) ;
#180 = EDGE_CURVE ( 'NONE', #100, #61, #7, .T. ) ;
#181 = CARTESIAN_POINT ( 'NONE',  ( 0.000000000000000000, 0.000000000000000000, 1.500000000000000000 ) ) ;
#182 = VERTEX_POINT ( 'NONE', #105 ) ;
#183 = DIRECTION ( 'NONE',  ( 1.000000000000000000, 0.000000000000000000, 0.000000000000000000 ) ) ;
#184 = AXIS2_PLACEMENT_3D ( 'NONE', #223, #134, #84 ) ;
#185 = CARTESIAN_POINT ( 'NONE',  ( 0.000000000000000000, 0.000000000000000000, 1.700000000000007061 ) ) ;
#186 = PERSON_AND_ORGANIZATION ( #97, #305 ) ;
#187 = VECTOR ( 'NONE', #126, 1000.000000000000000 ) ;
#188 = DIRECTION ( 'NONE',  ( 1.000000000000000000, 0.000000000000000000, 0.000000000000000000 ) ) ;
#189 = APPROVAL ( #171, 'NEURÈENÝ' ) ;
#190 = APPROVAL_ROLE ( '' ) ;
#191 = CARTESIAN_POINT ( 'NONE',  ( 0.000000000000000000, 0.000000000000000000, 1.500000000000000000 ) ) ;
#192 = LOCAL_TIME ( 12, 22, 52.00000000000000000, #119 ) ;
#193 = VERTEX_POINT ( 'NONE', #221 ) ;
#194 = EDGE_LOOP ( 'NONE', ( #67, #217, #57, #297 ) ) ;
#195 =( GEOMETRIC_REPRESENTATION_CONTEXT ( 3 ) GLOBAL_UNCERTAINTY_ASSIGNED_CONTEXT ( ( #25 ) ) GLOBAL_UNIT_ASSIGNED_CONTEXT ( ( #22, #161, #211 ) ) REPRESENTATION_CONTEXT ( 'NONE', 'WORKASPACE' ) );
#196 = FACE_OUTER_BOUND ( 'NONE', #59, .T. ) ;
#197 = CARTESIAN_POINT ( 'NONE',  ( -0.8000000000000000444, 0.000000000000000000, 101.5000000000000000 ) ) ;
#198 = ORIENTED_EDGE ( 'NONE', *, *, #236, .T. ) ;
#199 = EDGE_CURVE ( 'NONE', #114, #100, #241, .T. ) ;
#200 = MANIFOLD_SOLID_BREP ( 'Zaoblit1', #106 ) ;
#201 = PLANE ( 'NONE',  #218 ) ;
#202 = EDGE_LOOP ( 'NONE', ( #270, #176, #198, #251 ) ) ;
#203 = CARTESIAN_POINT ( 'NONE',  ( 0.8000000000000000444, 9.797174393178826150E-17, 1.700000000000007061 ) ) ;
#204 = FACE_OUTER_BOUND ( 'NONE', #148, .T. ) ;
#205 = DIRECTION ( 'NONE',  ( -0.000000000000000000, -0.000000000000000000, -1.000000000000000000 ) ) ;
#206 = DIRECTION ( 'NONE',  ( 1.000000000000000000, 0.000000000000000000, 0.000000000000000000 ) ) ;
#207 = DIRECTION ( 'NONE',  ( 1.000000000000000000, 0.000000000000000000, 0.000000000000000000 ) ) ;
#208 = DIRECTION ( 'NONE',  ( -0.000000000000000000, -0.000000000000000000, -1.000000000000000000 ) ) ;
#209 = CC_DESIGN_APPROVAL ( #123, ( #36 ) ) ;
#210 = MECHANICAL_CONTEXT ( 'NONE', #302, 'mechanical' ) ;
#211 =( NAMED_UNIT ( * ) SI_UNIT ( $, .STERADIAN. ) SOLID_ANGLE_UNIT ( ) );
#212 = AXIS2_PLACEMENT_3D ( 'NONE', #185, #280, #69 ) ;
#213 = PLANE ( 'NONE',  #92 ) ;
#214 = APPROVAL_PERSON_ORGANIZATION ( #78, #189, #147 ) ;
#215 = EDGE_CURVE ( 'NONE', #182, #193, #12, .T. ) ;
#216 = AXIS2_PLACEMENT_3D ( 'NONE', #65, #110, #39 ) ;
#217 = ORIENTED_EDGE ( 'NONE', *, *, #139, .T. ) ;
#218 = AXIS2_PLACEMENT_3D ( 'NONE', #158, #253, #296 ) ;
#219 = LINE ( 'NONE', #5, #54 ) ;
#220 = LOCAL_TIME ( 12, 22, 52.00000000000000000, #273 ) ;
#221 = CARTESIAN_POINT ( 'NONE',  ( 1.500000000000000222, 1.836970198721030181E-16, 0.000000000000000000 ) ) ;
#222 = ORIENTED_EDGE ( 'NONE', *, *, #180, .T. ) ;
#223 = CARTESIAN_POINT ( 'NONE',  ( 0.000000000000000000, 0.000000000000000000, 1.700000000000007061 ) ) ;
#224 = VERTEX_POINT ( 'NONE', #66 ) ;
#225 = CARTESIAN_POINT ( 'NONE',  ( 1.000000000000000000, 0.000000000000000000, 1.700000000000007061 ) ) ;
#226 = APPROVAL_DATE_TIME ( #261, #189 ) ;
#227 = CYLINDRICAL_SURFACE ( 'NONE', #62, 1.500000000000000222 ) ;
#228 = CC_DESIGN_APPROVAL ( #252, ( #28 ) ) ;
#229 = DIRECTION ( 'NONE',  ( 1.000000000000000000, 0.000000000000000000, 0.000000000000000000 ) ) ;
#230 = VERTEX_POINT ( 'NONE', #103 ) ;
#231 = PERSON_AND_ORGANIZATION ( #97, #305 ) ;
#232 = ORIENTED_EDGE ( 'NONE', *, *, #156, .T. ) ;
#233 = CARTESIAN_POINT ( 'NONE',  ( 0.000000000000000000, 0.000000000000000000, 0.000000000000000000 ) ) ;
#234 = AXIS2_PLACEMENT_3D ( 'NONE', #225, #10, #299 ) ;
#235 = PERSON_AND_ORGANIZATION ( #97, #305 ) ;
#236 = EDGE_CURVE ( 'NONE', #274, #114, #60, .T. ) ;
#237 = PERSON_AND_ORGANIZATION ( #97, #305 ) ;
#238 = APPROVAL_STATUS ( 'not_yet_approved' ) ;
#239 = CIRCLE ( 'NONE', #99, 0.8000000000000000444 ) ;
#240 = APPROVAL_DATE_TIME ( #140, #252 ) ;
#241 = CIRCLE ( 'NONE', #109, 0.8000000000000000444 ) ;
#242 = ORIENTED_EDGE ( 'NONE', *, *, #6, .T. ) ;
#243 = DIRECTION ( 'NONE',  ( 0.000000000000000000, 0.000000000000000000, 1.000000000000000000 ) ) ;
#244 = ORIENTED_EDGE ( 'NONE', *, *, #255, .T. ) ;
#245 = DIRECTION ( 'NONE',  ( 1.224646799147353207E-16, 1.000000000000000000, -0.000000000000000000 ) ) ;
#246 = CC_DESIGN_SECURITY_CLASSIFICATION ( #45, ( #28 ) ) ;
#247 = AXIS2_PLACEMENT_3D ( 'NONE', #233, #265, #307 ) ;
#248 = CARTESIAN_POINT ( 'NONE',  ( 0.000000000000000000, 0.000000000000000000, 1.500000000000000000 ) ) ;
#249 = CYLINDRICAL_SURFACE ( 'NONE', #101, 1.500000000000000222 ) ;
#250 = CALENDAR_DATE ( 2022, 20, 6 ) ;
#251 = ORIENTED_EDGE ( 'NONE', *, *, #199, .T. ) ;
#252 = APPROVAL ( #238, 'NEURÈENÝ' ) ;
#253 = DIRECTION ( 'NONE',  ( 0.000000000000000000, 0.000000000000000000, 1.000000000000000000 ) ) ;
#254 = CARTESIAN_POINT ( 'NONE',  ( 0.000000000000000000, 0.000000000000000000, 0.000000000000000000 ) ) ;
#255 = EDGE_CURVE ( 'NONE', #224, #100, #219, .T. ) ;
#256 = APPROVAL_PERSON_ORGANIZATION ( #186, #252, #190 ) ;
#257 = DATE_AND_TIME ( #17, #20 ) ;
#258 = SHAPE_DEFINITION_REPRESENTATION ( #1, #58 ) ;
#259 = ORIENTED_EDGE ( 'NONE', *, *, #43, .T. ) ;
#260 = CYLINDRICAL_SURFACE ( 'NONE', #289, 0.8000000000000000444 ) ;
#261 = DATE_AND_TIME ( #250, #220 ) ;
#262 = DIRECTION ( 'NONE',  ( -0.000000000000000000, -0.000000000000000000, -1.000000000000000000 ) ) ;
#263 = ADVANCED_FACE ( 'NONE', ( #175, #149 ), #213, .T. ) ;
#264 = APPROVAL_DATE_TIME ( #257, #123 ) ;
#265 = DIRECTION ( 'NONE',  ( 0.000000000000000000, 0.000000000000000000, 1.000000000000000000 ) ) ;
#266 = AXIS2_PLACEMENT_3D ( 'NONE', #181, #37, #82 ) ;
#267 = ADVANCED_FACE ( 'NONE', ( #141 ), #260, .T. ) ;
#268 = CC_DESIGN_DATE_AND_TIME_ASSIGNMENT ( #91, #73, ( #36 ) ) ;
#269 = ADVANCED_FACE ( 'NONE', ( #49 ), #298, .F. ) ;
#270 = ORIENTED_EDGE ( 'NONE', *, *, #255, .F. ) ;
#271 = EDGE_LOOP ( 'NONE', ( #129, #107, #222, #81 ) ) ;
#272 = FACE_OUTER_BOUND ( 'NONE', #154, .T. ) ;
#273 = COORDINATED_UNIVERSAL_TIME_OFFSET ( 1, 0, .AHEAD. ) ;
#274 = VERTEX_POINT ( 'NONE', #283 ) ;
#275 = DIRECTION ( 'NONE',  ( -0.000000000000000000, -0.000000000000000000, -1.000000000000000000 ) ) ;
#276 = ORIENTED_EDGE ( 'NONE', *, *, #236, .F. ) ;
#277 = VECTOR ( 'NONE', #205, 1000.000000000000000 ) ;
#278 = PLANE ( 'NONE',  #216 ) ;
#279 = DIRECTION ( 'NONE',  ( -1.000000000000000000, 0.000000000000000000, 0.000000000000000000 ) ) ;
#280 = DIRECTION ( 'NONE',  ( 0.000000000000000000, 0.000000000000000000, 1.000000000000000000 ) ) ;
#281 = CYLINDRICAL_SURFACE ( 'NONE', #42, 0.8000000000000000444 ) ;
#282 = ORIENTED_EDGE ( 'NONE', *, *, #46, .F. ) ;
#283 = CARTESIAN_POINT ( 'NONE',  ( -0.8000000000000000444, 0.000000000000000000, 101.5000000000000000 ) ) ;
#284 = DIRECTION ( 'NONE',  ( -0.000000000000000000, -0.000000000000000000, -1.000000000000000000 ) ) ;
#285 = APPLICATION_PROTOCOL_DEFINITION ( 'international standard', 'config_control_design', 1994, #302 ) ;
#286 = TOROIDAL_SURFACE ( 'NONE', #212, 1.000000000000000000, 0.2000000000000000111 ) ;
#287 = PERSON_AND_ORGANIZATION ( #97, #305 ) ;
#288 = EDGE_CURVE ( 'NONE', #230, #61, #166, .T. ) ;
#289 = AXIS2_PLACEMENT_3D ( 'NONE', #142, #262, #93 ) ;
#290 = AXIS2_PLACEMENT_3D ( 'NONE', #44, #132, #206 ) ;
#291 = CALENDAR_DATE ( 2022, 20, 6 ) ;
#292 = EDGE_LOOP ( 'NONE', ( #135, #3 ) ) ;
#293 = LINE ( 'NONE', #33, #277 ) ;
#294 = VERTEX_POINT ( 'NONE', #138 ) ;
#295 = DIRECTION ( 'NONE',  ( 1.000000000000000000, 0.000000000000000000, 0.000000000000000000 ) ) ;
#296 = DIRECTION ( 'NONE',  ( 1.000000000000000000, 0.000000000000000000, -0.000000000000000000 ) ) ;
#297 = ORIENTED_EDGE ( 'NONE', *, *, #180, .F. ) ;
#298 = TOROIDAL_SURFACE ( 'NONE', #116, 1.000000000000000000, 0.2000000000000000111 ) ;
#299 = DIRECTION ( 'NONE',  ( 0.000000000000000000, 0.000000000000000000, -1.000000000000000000 ) ) ;
#300 = DIRECTION ( 'NONE',  ( 0.000000000000000000, 0.000000000000000000, 1.000000000000000000 ) ) ;
#301 = DIRECTION ( 'NONE',  ( -0.000000000000000000, -0.000000000000000000, -1.000000000000000000 ) ) ;
#302 = APPLICATION_CONTEXT ( 'configuration controlled 3d designs of mechanical parts and assemblies' ) ;
#303 = DIRECTION ( 'NONE',  ( -1.000000000000000000, 0.000000000000000000, 0.000000000000000000 ) ) ;
#304 = DIRECTION ( 'NONE',  ( 1.000000000000000000, 0.000000000000000000, -0.000000000000000000 ) ) ;
#305 = ORGANIZATION ( 'NEURÈENÝ', 'NEURÈENÝ', '' ) ;
#306 = COORDINATED_UNIVERSAL_TIME_OFFSET ( 1, 0, .AHEAD. ) ;
#307 = DIRECTION ( 'NONE',  ( 1.000000000000000000, 0.000000000000000000, 0.000000000000000000 ) ) ;
ENDSEC;
END-ISO-10303-21;
