ISO-10303-21;
HEADER;
FILE_DESCRIPTION (( 'STEP AP203' ),
    '1' );
FILE_NAME ('9ede.STEP',
    '2022-06-20T09:44:05',
    ( '' ),
    ( '' ),
    'SwSTEP 2.0',
    'SolidWorks 2019',
    '' );
FILE_SCHEMA (( 'CONFIG_CONTROL_DESIGN' ));
ENDSEC;

DATA;
#1 = CARTESIAN_POINT ( 'NONE',  ( -4.450000000000000178, 5.449678256205721784E-16, 4.999999999999991118 ) ) ;
#2 = AXIS2_PLACEMENT_3D ( 'NONE', #279, #68, #238 ) ;
#3 = FACE_OUTER_BOUND ( 'NONE', #132, .T. ) ;
#4 = EDGE_LOOP ( 'NONE', ( #240, #262, #92, #282 ) ) ;
#5 = EDGE_CURVE ( 'NONE', #27, #71, #193, .T. ) ;
#6 = CARTESIAN_POINT ( 'NONE',  ( 0.000000000000000000, 0.000000000000000000, 5.199999999999982414 ) ) ;
#7 = CYLINDRICAL_SURFACE ( 'NONE', #286, 7.000000000000000000 ) ;
#8 = DIRECTION ( 'NONE',  ( 0.000000000000000000, -1.000000000000000000, 0.000000000000000000 ) ) ;
#9 = AXIS2_PLACEMENT_3D ( 'NONE', #269, #267, #173 ) ;
#10 = DIRECTION ( 'NONE',  ( -0.000000000000000000, -0.000000000000000000, -1.000000000000000000 ) ) ;
#11 = CARTESIAN_POINT ( 'NONE',  ( 0.000000000000000000, 0.000000000000000000, 0.000000000000000000 ) ) ;
#12 = ORIENTED_EDGE ( 'NONE', *, *, #272, .T. ) ;
#13 = PLANE ( 'NONE',  #174 ) ;
#14 = ORIENTED_EDGE ( 'NONE', *, *, #102, .F. ) ;
#15 = EDGE_CURVE ( 'NONE', #36, #50, #246, .T. ) ;
#16 = PERSON_AND_ORGANIZATION_ROLE ( 'design_owner' ) ;
#17 = PERSON_AND_ORGANIZATION_ROLE ( 'creator' ) ;
#18 = LOCAL_TIME ( 11, 44, 5.000000000000000000, #19 ) ;
#19 = COORDINATED_UNIVERSAL_TIME_OFFSET ( 1, 0, .AHEAD. ) ;
#20 = CARTESIAN_POINT ( 'NONE',  ( -7.000000000000000000, 0.000000000000000000, 5.000000000000000000 ) ) ;
#21 = DIRECTION ( 'NONE',  ( 0.000000000000000000, 0.000000000000000000, 1.000000000000000000 ) ) ;
#22 = ORIENTED_EDGE ( 'NONE', *, *, #114, .T. ) ;
#23 =( LENGTH_UNIT ( ) NAMED_UNIT ( * ) SI_UNIT ( .MILLI., .METRE. ) );
#24 = AXIS2_PLACEMENT_3D ( 'NONE', #11, #31, #297 ) ;
#25 = CARTESIAN_POINT ( 'NONE',  ( -4.250000000000000000, 0.000000000000000000, 1004.999999999999886 ) ) ;
#26 = VERTEX_POINT ( 'NONE', #165 ) ;
#27 = VERTEX_POINT ( 'NONE', #265 ) ;
#28 = CARTESIAN_POINT ( 'NONE',  ( 0.000000000000000000, 0.000000000000000000, 5.000000000000000000 ) ) ;
#29 = PERSON_AND_ORGANIZATION ( #290, #40 ) ;
#30 = ADVANCED_FACE ( 'NONE', ( #117 ), #141, .T. ) ;
#31 = DIRECTION ( 'NONE',  ( 0.000000000000000000, 0.000000000000000000, 1.000000000000000000 ) ) ;
#32 = VECTOR ( 'NONE', #125, 1000.000000000000000 ) ;
#33 = LOCAL_TIME ( 11, 44, 5.000000000000000000, #144 ) ;
#34 = DIRECTION ( 'NONE',  ( 1.000000000000000000, 0.000000000000000000, 0.000000000000000000 ) ) ;
#35 = CIRCLE ( 'NONE', #251, 4.250000000000000000 ) ;
#36 = VERTEX_POINT ( 'NONE', #67 ) ;
#37 = ADVANCED_BREP_SHAPE_REPRESENTATION ( '9ede', ( #235, #49 ), #231 ) ;
#38 = FACE_OUTER_BOUND ( 'NONE', #230, .T. ) ;
#39 = EDGE_LOOP ( 'NONE', ( #128, #263, #233, #45 ) ) ;
#40 = ORGANIZATION ( 'NEURÈENÝ', 'NEURÈENÝ', '' ) ;
#41 = COORDINATED_UNIVERSAL_TIME_OFFSET ( 1, 0, .AHEAD. ) ;
#42 = EDGE_CURVE ( 'NONE', #71, #50, #188, .T. ) ;
#43 = CARTESIAN_POINT ( 'NONE',  ( 4.250000000000000000, 5.204748896376250699E-16, 1004.999999999999886 ) ) ;
#44 = PERSON_AND_ORGANIZATION ( #290, #40 ) ;
#45 = ORIENTED_EDGE ( 'NONE', *, *, #5, .F. ) ;
#46 = DIRECTION ( 'NONE',  ( -0.000000000000000000, -0.000000000000000000, -1.000000000000000000 ) ) ;
#47 = APPROVAL ( #61, 'NEURÈENÝ' ) ;
#48 = ORIENTED_EDGE ( 'NONE', *, *, #301, .T. ) ;
#49 = AXIS2_PLACEMENT_3D ( 'NONE', #299, #21, #236 ) ;
#50 = VERTEX_POINT ( 'NONE', #1 ) ;
#51 = CIRCLE ( 'NONE', #226, 7.000000000000000000 ) ;
#52 = FACE_OUTER_BOUND ( 'NONE', #123, .T. ) ;
#53 = CARTESIAN_POINT ( 'NONE',  ( 4.250000000000000000, 5.204748896376250699E-16, 5.199999999999982414 ) ) ;
#54 = CC_DESIGN_APPROVAL ( #195, ( #124 ) ) ;
#55 = EDGE_CURVE ( 'NONE', #71, #219, #130, .T. ) ;
#56 = DIRECTION ( 'NONE',  ( 0.000000000000000000, 0.000000000000000000, 1.000000000000000000 ) ) ;
#57 = EDGE_LOOP ( 'NONE', ( #48, #146 ) ) ;
#58 = CARTESIAN_POINT ( 'NONE',  ( 7.000000000000000000, 8.572527594031473190E-16, 5.000000000000000000 ) ) ;
#59 = ORIENTED_EDGE ( 'NONE', *, *, #272, .F. ) ;
#60 = CIRCLE ( 'NONE', #142, 4.250000000000000000 ) ;
#61 = APPROVAL_STATUS ( 'not_yet_approved' ) ;
#62 = CIRCLE ( 'NONE', #87, 4.450000000000000178 ) ;
#63 = CARTESIAN_POINT ( 'NONE',  ( 0.000000000000000000, 0.000000000000000000, 5.000000000000000000 ) ) ;
#64 = DESIGN_CONTEXT ( 'detailed design', #186, 'design' ) ;
#65 = CARTESIAN_POINT ( 'NONE',  ( 0.000000000000000000, 0.000000000000000000, 0.000000000000000000 ) ) ;
#66 = AXIS2_PLACEMENT_3D ( 'NONE', #223, #8, #80 ) ;
#67 = CARTESIAN_POINT ( 'NONE',  ( 4.450000000000000178, 0.000000000000000000, 4.999999999999991118 ) ) ;
#68 = DIRECTION ( 'NONE',  ( 0.000000000000000000, 0.000000000000000000, 1.000000000000000000 ) ) ;
#69 = DIRECTION ( 'NONE',  ( -0.000000000000000000, -0.000000000000000000, -1.000000000000000000 ) ) ;
#70 = DIRECTION ( 'NONE',  ( 0.000000000000000000, 0.000000000000000000, 1.000000000000000000 ) ) ;
#71 = VERTEX_POINT ( 'NONE', #120 ) ;
#72 = EDGE_CURVE ( 'NONE', #181, #26, #306, .T. ) ;
#73 = EDGE_CURVE ( 'NONE', #110, #219, #283, .T. ) ;
#74 = DIRECTION ( 'NONE',  ( 1.000000000000000000, 0.000000000000000000, -0.000000000000000000 ) ) ;
#75 = DIRECTION ( 'NONE',  ( 0.000000000000000000, 0.000000000000000000, 1.000000000000000000 ) ) ;
#76 = CALENDAR_DATE ( 2022, 20, 6 ) ;
#77 = TOROIDAL_SURFACE ( 'NONE', #156, 4.450000000000000178, 0.2000000000000000111 ) ;
#78 = EDGE_CURVE ( 'NONE', #84, #181, #138, .T. ) ;
#79 = CC_DESIGN_PERSON_AND_ORGANIZATION_ASSIGNMENT ( #162, #166, ( #124 ) ) ;
#80 = DIRECTION ( 'NONE',  ( 0.000000000000000000, 0.000000000000000000, -1.000000000000000000 ) ) ;
#81 = CC_DESIGN_SECURITY_CLASSIFICATION ( #303, ( #124 ) ) ;
#82 = DIRECTION ( 'NONE',  ( -1.000000000000000000, 0.000000000000000000, 0.000000000000000000 ) ) ;
#83 = DIRECTION ( 'NONE',  ( 0.000000000000000000, 0.000000000000000000, 1.000000000000000000 ) ) ;
#84 = VERTEX_POINT ( 'NONE', #20 ) ;
#85 = PRODUCT_RELATED_PRODUCT_CATEGORY ( 'detail', '', ( #266 ) ) ;
#86 = ORIENTED_EDGE ( 'NONE', *, *, #301, .F. ) ;
#87 = AXIS2_PLACEMENT_3D ( 'NONE', #63, #164, #192 ) ;
#88 = CALENDAR_DATE ( 2022, 20, 6 ) ;
#89 = CARTESIAN_POINT ( 'NONE',  ( 0.000000000000000000, 0.000000000000000000, 5.000000000000000000 ) ) ;
#90 = APPROVAL_PERSON_ORGANIZATION ( #44, #47, #278 ) ;
#91 = ORIENTED_EDGE ( 'NONE', *, *, #116, .F. ) ;
#92 = ORIENTED_EDGE ( 'NONE', *, *, #176, .T. ) ;
#93 = DATE_TIME_ROLE ( 'classification_date' ) ;
#94 = CARTESIAN_POINT ( 'NONE',  ( 0.000000000000000000, 0.000000000000000000, 1004.999999999999886 ) ) ;
#95 = ADVANCED_FACE ( 'NONE', ( #3 ), #280, .F. ) ;
#96 = EDGE_LOOP ( 'NONE', ( #107, #206 ) ) ;
#97 = DATE_AND_TIME ( #268, #178 ) ;
#98 = DIRECTION ( 'NONE',  ( 1.000000000000000000, 0.000000000000000000, -0.000000000000000000 ) ) ;
#99 = PERSON_AND_ORGANIZATION ( #290, #40 ) ;
#100 = DIRECTION ( 'NONE',  ( 1.000000000000000000, 0.000000000000000000, 0.000000000000000000 ) ) ;
#101 = EDGE_CURVE ( 'NONE', #167, #84, #51, .T. ) ;
#102 = EDGE_CURVE ( 'NONE', #219, #71, #35, .T. ) ;
#103 = CC_DESIGN_PERSON_AND_ORGANIZATION_ASSIGNMENT ( #99, #149, ( #124 ) ) ;
#104 = VECTOR ( 'NONE', #237, 1000.000000000000000 ) ;
#105 = ADVANCED_FACE ( 'NONE', ( #38 ), #7, .T. ) ;
#106 = DIRECTION ( 'NONE',  ( 0.000000000000000000, 0.000000000000000000, 1.000000000000000000 ) ) ;
#107 = ORIENTED_EDGE ( 'NONE', *, *, #15, .T. ) ;
#108 = DIRECTION ( 'NONE',  ( 1.000000000000000000, 0.000000000000000000, 0.000000000000000000 ) ) ;
#109 = DIRECTION ( 'NONE',  ( 1.000000000000000000, 0.000000000000000000, 0.000000000000000000 ) ) ;
#110 = VERTEX_POINT ( 'NONE', #252 ) ;
#111 = APPROVAL_STATUS ( 'not_yet_approved' ) ;
#112 = ORIENTED_EDGE ( 'NONE', *, *, #114, .F. ) ;
#113 = VECTOR ( 'NONE', #214, 1000.000000000000000 ) ;
#114 = EDGE_CURVE ( 'NONE', #27, #110, #168, .T. ) ;
#115 =( NAMED_UNIT ( * ) PLANE_ANGLE_UNIT ( ) SI_UNIT ( $, .RADIAN. ) );
#116 = EDGE_CURVE ( 'NONE', #167, #26, #289, .T. ) ;
#117 = FACE_OUTER_BOUND ( 'NONE', #39, .T. ) ;
#118 = SHAPE_DEFINITION_REPRESENTATION ( #241, #37 ) ;
#119 = APPROVAL_PERSON_ORGANIZATION ( #304, #195, #212 ) ;
#120 = CARTESIAN_POINT ( 'NONE',  ( -4.250000000000000000, 0.000000000000000000, 5.199999999999982414 ) ) ;
#121 = ORIENTED_EDGE ( 'NONE', *, *, #55, .T. ) ;
#122 = AXIS2_PLACEMENT_3D ( 'NONE', #6, #70, #197 ) ;
#123 = EDGE_LOOP ( 'NONE', ( #285, #112, #275, #121 ) ) ;
#124 = PRODUCT_DEFINITION_FORMATION_WITH_SPECIFIED_SOURCE ( 'LIBOVOLNÝ', '', #266, .NOT_KNOWN. ) ;
#125 = DIRECTION ( 'NONE',  ( -0.000000000000000000, -0.000000000000000000, -1.000000000000000000 ) ) ;
#126 = CARTESIAN_POINT ( 'NONE',  ( 0.000000000000000000, 0.000000000000000000, 1004.999999999999886 ) ) ;
#127 = CARTESIAN_POINT ( 'NONE',  ( 0.000000000000000000, 0.000000000000000000, 0.000000000000000000 ) ) ;
#128 = ORIENTED_EDGE ( 'NONE', *, *, #194, .F. ) ;
#129 = AXIS2_PLACEMENT_3D ( 'NONE', #94, #46, #163 ) ;
#130 = CIRCLE ( 'NONE', #122, 4.250000000000000000 ) ;
#131 = CARTESIAN_POINT ( 'NONE',  ( 0.000000000000000000, 0.000000000000000000, 5.199999999999982414 ) ) ;
#132 = EDGE_LOOP ( 'NONE', ( #183, #14, #12, #239 ) ) ;
#133 = AXIS2_PLACEMENT_3D ( 'NONE', #172, #56, #34 ) ;
#134 = FACE_OUTER_BOUND ( 'NONE', #57, .T. ) ;
#135 = ORIENTED_EDGE ( 'NONE', *, *, #72, .T. ) ;
#136 = ADVANCED_FACE ( 'NONE', ( #276 ), #13, .F. ) ;
#137 = CALENDAR_DATE ( 2022, 20, 6 ) ;
#138 = LINE ( 'NONE', #217, #104 ) ;
#139 = ORIENTED_EDGE ( 'NONE', *, *, #176, .F. ) ;
#140 = APPROVAL ( #249, 'NEURÈENÝ' ) ;
#141 = CYLINDRICAL_SURFACE ( 'NONE', #129, 4.250000000000000000 ) ;
#142 = AXIS2_PLACEMENT_3D ( 'NONE', #126, #200, #109 ) ;
#143 = ORIENTED_EDGE ( 'NONE', *, *, #72, .F. ) ;
#144 = COORDINATED_UNIVERSAL_TIME_OFFSET ( 1, 0, .AHEAD. ) ;
#145 = PRODUCT_DEFINITION ( 'NEZNÁMÝ', '', #124, #64 ) ;
#146 = ORIENTED_EDGE ( 'NONE', *, *, #101, .T. ) ;
#147 = AXIS2_PLACEMENT_3D ( 'NONE', #307, #154, #100 ) ;
#148 = CYLINDRICAL_SURFACE ( 'NONE', #184, 4.250000000000000000 ) ;
#149 = PERSON_AND_ORGANIZATION_ROLE ( 'design_supplier' ) ;
#150 = PLANE ( 'NONE',  #9 ) ;
#151 = ADVANCED_FACE ( 'NONE', ( #227 ), #253, .T. ) ;
#152 = ADVANCED_FACE ( 'NONE', ( #155 ), #77, .F. ) ;
#153 = DIRECTION ( 'NONE',  ( -0.000000000000000000, -0.000000000000000000, -1.000000000000000000 ) ) ;
#154 = DIRECTION ( 'NONE',  ( 0.000000000000000000, 0.000000000000000000, 1.000000000000000000 ) ) ;
#155 = FACE_OUTER_BOUND ( 'NONE', #245, .T. ) ;
#156 = AXIS2_PLACEMENT_3D ( 'NONE', #131, #75, #108 ) ;
#157 = DATE_AND_TIME ( #160, #18 ) ;
#158 = UNCERTAINTY_MEASURE_WITH_UNIT (LENGTH_MEASURE( 1.000000000000000082E-05 ), #23, 'distance_accuracy_value', 'NONE');
#159 = APPROVAL_DATE_TIME ( #157, #47 ) ;
#160 = CALENDAR_DATE ( 2022, 20, 6 ) ;
#161 = DIRECTION ( 'NONE',  ( 0.000000000000000000, 0.000000000000000000, 1.000000000000000000 ) ) ;
#162 = PERSON_AND_ORGANIZATION ( #290, #40 ) ;
#163 = DIRECTION ( 'NONE',  ( -1.000000000000000000, 0.000000000000000000, 0.000000000000000000 ) ) ;
#164 = DIRECTION ( 'NONE',  ( -0.000000000000000000, -0.000000000000000000, -1.000000000000000000 ) ) ;
#165 = CARTESIAN_POINT ( 'NONE',  ( 7.000000000000000000, 8.572527594031473190E-16, 0.000000000000000000 ) ) ;
#166 = PERSON_AND_ORGANIZATION_ROLE ( 'creator' ) ;
#167 = VERTEX_POINT ( 'NONE', #207 ) ;
#168 = CIRCLE ( 'NONE', #133, 4.250000000000000000 ) ;
#169 = APPROVAL_PERSON_ORGANIZATION ( #29, #140, #218 ) ;
#170 = DIRECTION ( 'NONE',  ( -0.000000000000000000, -0.000000000000000000, -1.000000000000000000 ) ) ;
#171 = CC_DESIGN_DATE_AND_TIME_ASSIGNMENT ( #97, #93, ( #303 ) ) ;
#172 = CARTESIAN_POINT ( 'NONE',  ( 0.000000000000000000, 0.000000000000000000, 1004.999999999999886 ) ) ;
#173 = DIRECTION ( 'NONE',  ( 1.000000000000000000, 0.000000000000000000, -0.000000000000000000 ) ) ;
#174 = AXIS2_PLACEMENT_3D ( 'NONE', #127, #179, #98 ) ;
#175 = AXIS2_PLACEMENT_3D ( 'NONE', #291, #232, #74 ) ;
#176 = EDGE_CURVE ( 'NONE', #26, #181, #201, .T. ) ;
#177 = DIRECTION ( 'NONE',  ( 1.000000000000000000, 0.000000000000000000, 0.000000000000000000 ) ) ;
#178 = LOCAL_TIME ( 11, 44, 5.000000000000000000, #221 ) ;
#179 = DIRECTION ( 'NONE',  ( 0.000000000000000000, 0.000000000000000000, 1.000000000000000000 ) ) ;
#180 = DIRECTION ( 'NONE',  ( -0.000000000000000000, -0.000000000000000000, -1.000000000000000000 ) ) ;
#181 = VERTEX_POINT ( 'NONE', #247 ) ;
#182 = PERSON_AND_ORGANIZATION ( #290, #40 ) ;
#183 = ORIENTED_EDGE ( 'NONE', *, *, #42, .F. ) ;
#184 = AXIS2_PLACEMENT_3D ( 'NONE', #222, #10, #248 ) ;
#185 = MECHANICAL_CONTEXT ( 'NONE', #204, 'mechanical' ) ;
#186 = APPLICATION_CONTEXT ( 'configuration controlled 3d designs of mechanical parts and assemblies' ) ;
#187 = AXIS2_PLACEMENT_3D ( 'NONE', #65, #161, #258 ) ;
#188 = CIRCLE ( 'NONE', #228, 0.1999999999999996503 ) ;
#189 = DATE_AND_TIME ( #88, #264 ) ;
#190 = DIRECTION ( 'NONE',  ( 1.000000000000000000, 0.000000000000000000, 0.000000000000000000 ) ) ;
#191 = CC_DESIGN_APPROVAL ( #140, ( #303 ) ) ;
#192 = DIRECTION ( 'NONE',  ( 1.000000000000000000, 0.000000000000000000, 0.000000000000000000 ) ) ;
#193 = LINE ( 'NONE', #25, #113 ) ;
#194 = EDGE_CURVE ( 'NONE', #110, #27, #60, .T. ) ;
#195 = APPROVAL ( #111, 'NEURÈENÝ' ) ;
#196 = DIRECTION ( 'NONE',  ( 1.224646799147353207E-16, 1.000000000000000000, -0.000000000000000000 ) ) ;
#197 = DIRECTION ( 'NONE',  ( 1.000000000000000000, 0.000000000000000000, 0.000000000000000000 ) ) ;
#198 = DATE_AND_TIME ( #76, #33 ) ;
#199 = PLANE ( 'NONE',  #175 ) ;
#200 = DIRECTION ( 'NONE',  ( 0.000000000000000000, 0.000000000000000000, 1.000000000000000000 ) ) ;
#201 = CIRCLE ( 'NONE', #24, 7.000000000000000000 ) ;
#202 = ADVANCED_FACE ( 'NONE', ( #256, #134 ), #199, .T. ) ;
#203 = CLOSED_SHELL ( 'NONE', ( #152, #30, #151, #105, #202, #136, #224, #211, #95 ) ) ;
#204 = APPLICATION_CONTEXT ( 'configuration controlled 3d designs of mechanical parts and assemblies' ) ;
#205 = DIRECTION ( 'NONE',  ( -1.000000000000000000, 0.000000000000000000, 0.000000000000000000 ) ) ;
#206 = ORIENTED_EDGE ( 'NONE', *, *, #295, .T. ) ;
#207 = CARTESIAN_POINT ( 'NONE',  ( 7.000000000000000000, 8.572527594031473190E-16, 5.000000000000000000 ) ) ;
#208 = CC_DESIGN_PERSON_AND_ORGANIZATION_ASSIGNMENT ( #257, #17, ( #145 ) ) ;
#209 = ORIENTED_EDGE ( 'NONE', *, *, #42, .T. ) ;
#210 = DATE_TIME_ROLE ( 'creation_date' ) ;
#211 = ADVANCED_FACE ( 'NONE', ( #288 ), #150, .T. ) ;
#212 = APPROVAL_ROLE ( '' ) ;
#213 = EDGE_LOOP ( 'NONE', ( #143, #139 ) ) ;
#214 = DIRECTION ( 'NONE',  ( -0.000000000000000000, -0.000000000000000000, -1.000000000000000000 ) ) ;
#215 = LOCAL_TIME ( 11, 44, 5.000000000000000000, #41 ) ;
#216 = PERSON_AND_ORGANIZATION ( #290, #40 ) ;
#217 = CARTESIAN_POINT ( 'NONE',  ( -7.000000000000000000, 0.000000000000000000, 5.000000000000000000 ) ) ;
#218 = APPROVAL_ROLE ( '' ) ;
#219 = VERTEX_POINT ( 'NONE', #53 ) ;
#220 = DIRECTION ( 'NONE',  ( -1.000000000000000000, 1.224646799147353454E-16, 0.000000000000000000 ) ) ;
#221 = COORDINATED_UNIVERSAL_TIME_OFFSET ( 1, 0, .AHEAD. ) ;
#222 = CARTESIAN_POINT ( 'NONE',  ( 0.000000000000000000, 0.000000000000000000, 1004.999999999999886 ) ) ;
#223 = CARTESIAN_POINT ( 'NONE',  ( 4.450000000000000178, 0.000000000000000000, 5.199999999999982414 ) ) ;
#224 = ADVANCED_FACE ( 'NONE', ( #52 ), #148, .T. ) ;
#225 = CC_DESIGN_APPROVAL ( #47, ( #145 ) ) ;
#226 = AXIS2_PLACEMENT_3D ( 'NONE', #284, #106, #177 ) ;
#227 = FACE_OUTER_BOUND ( 'NONE', #4, .T. ) ;
#228 = AXIS2_PLACEMENT_3D ( 'NONE', #259, #196, #220 ) ;
#229 = DIRECTION ( 'NONE',  ( 1.000000000000000000, 0.000000000000000000, 0.000000000000000000 ) ) ;
#230 = EDGE_LOOP ( 'NONE', ( #91, #86, #300, #135 ) ) ;
#231 =( GEOMETRIC_REPRESENTATION_CONTEXT ( 3 ) GLOBAL_UNCERTAINTY_ASSIGNED_CONTEXT ( ( #158 ) ) GLOBAL_UNIT_ASSIGNED_CONTEXT ( ( #23, #115, #302 ) ) REPRESENTATION_CONTEXT ( 'NONE', 'WORKASPACE' ) );
#232 = DIRECTION ( 'NONE',  ( 0.000000000000000000, 0.000000000000000000, 1.000000000000000000 ) ) ;
#233 = ORIENTED_EDGE ( 'NONE', *, *, #102, .T. ) ;
#234 = DATE_AND_TIME ( #137, #215 ) ;
#235 = MANIFOLD_SOLID_BREP ( 'Zaoblit1', #203 ) ;
#236 = DIRECTION ( 'NONE',  ( 1.000000000000000000, 0.000000000000000000, 0.000000000000000000 ) ) ;
#237 = DIRECTION ( 'NONE',  ( -0.000000000000000000, -0.000000000000000000, -1.000000000000000000 ) ) ;
#238 = DIRECTION ( 'NONE',  ( 1.000000000000000000, 0.000000000000000000, 0.000000000000000000 ) ) ;
#239 = ORIENTED_EDGE ( 'NONE', *, *, #295, .F. ) ;
#240 = ORIENTED_EDGE ( 'NONE', *, *, #101, .F. ) ;
#241 = PRODUCT_DEFINITION_SHAPE ( 'NONE', 'NONE',  #145 ) ;
#242 = CC_DESIGN_PERSON_AND_ORGANIZATION_ASSIGNMENT ( #216, #270, ( #303 ) ) ;
#243 = ORIENTED_EDGE ( 'NONE', *, *, #15, .F. ) ;
#244 = APPROVAL_DATE_TIME ( #198, #140 ) ;
#245 = EDGE_LOOP ( 'NONE', ( #296, #209, #243, #59 ) ) ;
#246 = CIRCLE ( 'NONE', #255, 4.450000000000000178 ) ;
#247 = CARTESIAN_POINT ( 'NONE',  ( -7.000000000000000000, 0.000000000000000000, 0.000000000000000000 ) ) ;
#248 = DIRECTION ( 'NONE',  ( -1.000000000000000000, 0.000000000000000000, 0.000000000000000000 ) ) ;
#249 = APPROVAL_STATUS ( 'not_yet_approved' ) ;
#250 = CC_DESIGN_DATE_AND_TIME_ASSIGNMENT ( #234, #210, ( #145 ) ) ;
#251 = AXIS2_PLACEMENT_3D ( 'NONE', #273, #83, #229 ) ;
#252 = CARTESIAN_POINT ( 'NONE',  ( 4.250000000000000000, 5.204748896376250699E-16, 1004.999999999999886 ) ) ;
#253 = CYLINDRICAL_SURFACE ( 'NONE', #292, 7.000000000000000000 ) ;
#254 = ORIENTED_EDGE ( 'NONE', *, *, #194, .T. ) ;
#255 = AXIS2_PLACEMENT_3D ( 'NONE', #89, #170, #190 ) ;
#256 = FACE_BOUND ( 'NONE', #96, .T. ) ;
#257 = PERSON_AND_ORGANIZATION ( #290, #40 ) ;
#258 = DIRECTION ( 'NONE',  ( 1.000000000000000000, 0.000000000000000000, 0.000000000000000000 ) ) ;
#259 = CARTESIAN_POINT ( 'NONE',  ( -4.450000000000000178, 5.449678256205721784E-16, 5.199999999999982414 ) ) ;
#260 = CC_DESIGN_PERSON_AND_ORGANIZATION_ASSIGNMENT ( #182, #16, ( #266 ) ) ;
#261 = APPLICATION_PROTOCOL_DEFINITION ( 'international standard', 'config_control_design', 1994, #204 ) ;
#262 = ORIENTED_EDGE ( 'NONE', *, *, #116, .T. ) ;
#263 = ORIENTED_EDGE ( 'NONE', *, *, #73, .T. ) ;
#264 = LOCAL_TIME ( 11, 44, 5.000000000000000000, #305 ) ;
#265 = CARTESIAN_POINT ( 'NONE',  ( -4.250000000000000000, 0.000000000000000000, 1004.999999999999886 ) ) ;
#266 = PRODUCT ( '9ede', '9ede', '', ( #185 ) ) ;
#267 = DIRECTION ( 'NONE',  ( 0.000000000000000000, 0.000000000000000000, 1.000000000000000000 ) ) ;
#268 = CALENDAR_DATE ( 2022, 20, 6 ) ;
#269 = CARTESIAN_POINT ( 'NONE',  ( 0.000000000000000000, 0.000000000000000000, 1004.999999999999886 ) ) ;
#270 = PERSON_AND_ORGANIZATION_ROLE ( 'classification_officer' ) ;
#271 = CIRCLE ( 'NONE', #66, 0.1999999999999996503 ) ;
#272 = EDGE_CURVE ( 'NONE', #219, #36, #271, .T. ) ;
#273 = CARTESIAN_POINT ( 'NONE',  ( 0.000000000000000000, 0.000000000000000000, 5.199999999999982414 ) ) ;
#274 = CARTESIAN_POINT ( 'NONE',  ( 0.000000000000000000, 0.000000000000000000, 5.000000000000000000 ) ) ;
#275 = ORIENTED_EDGE ( 'NONE', *, *, #5, .T. ) ;
#276 = FACE_OUTER_BOUND ( 'NONE', #213, .T. ) ;
#277 = APPLICATION_PROTOCOL_DEFINITION ( 'international standard', 'config_control_design', 1994, #186 ) ;
#278 = APPROVAL_ROLE ( '' ) ;
#279 = CARTESIAN_POINT ( 'NONE',  ( 0.000000000000000000, 0.000000000000000000, 5.000000000000000000 ) ) ;
#280 = TOROIDAL_SURFACE ( 'NONE', #147, 4.450000000000000178, 0.2000000000000000111 ) ;
#281 = APPROVAL_DATE_TIME ( #189, #195 ) ;
#282 = ORIENTED_EDGE ( 'NONE', *, *, #78, .F. ) ;
#283 = LINE ( 'NONE', #43, #294 ) ;
#284 = CARTESIAN_POINT ( 'NONE',  ( 0.000000000000000000, 0.000000000000000000, 5.000000000000000000 ) ) ;
#285 = ORIENTED_EDGE ( 'NONE', *, *, #73, .F. ) ;
#286 = AXIS2_PLACEMENT_3D ( 'NONE', #274, #153, #205 ) ;
#287 = SECURITY_CLASSIFICATION_LEVEL ( 'unclassified' ) ;
#288 = FACE_OUTER_BOUND ( 'NONE', #298, .T. ) ;
#289 = LINE ( 'NONE', #58, #32 ) ;
#290 = PERSON ( 'NEURÈENÝ', 'NEURÈENÝ', 'NEURÈENÝ', ('NEURÈENÝ'), ('NEURÈENÝ'), ('NEURÈENÝ') ) ;
#291 = CARTESIAN_POINT ( 'NONE',  ( 0.000000000000000000, 0.000000000000000000, 5.000000000000000000 ) ) ;
#292 = AXIS2_PLACEMENT_3D ( 'NONE', #28, #180, #82 ) ;
#293 = CIRCLE ( 'NONE', #2, 7.000000000000000000 ) ;
#294 = VECTOR ( 'NONE', #69, 1000.000000000000000 ) ;
#295 = EDGE_CURVE ( 'NONE', #50, #36, #62, .T. ) ;
#296 = ORIENTED_EDGE ( 'NONE', *, *, #55, .F. ) ;
#297 = DIRECTION ( 'NONE',  ( 1.000000000000000000, 0.000000000000000000, 0.000000000000000000 ) ) ;
#298 = EDGE_LOOP ( 'NONE', ( #22, #254 ) ) ;
#299 = CARTESIAN_POINT ( 'NONE',  ( 0.000000000000000000, 0.000000000000000000, 0.000000000000000000 ) ) ;
#300 = ORIENTED_EDGE ( 'NONE', *, *, #78, .T. ) ;
#301 = EDGE_CURVE ( 'NONE', #84, #167, #293, .T. ) ;
#302 =( NAMED_UNIT ( * ) SI_UNIT ( $, .STERADIAN. ) SOLID_ANGLE_UNIT ( ) );
#303 = SECURITY_CLASSIFICATION ( '', '', #287 ) ;
#304 = PERSON_AND_ORGANIZATION ( #290, #40 ) ;
#305 = COORDINATED_UNIVERSAL_TIME_OFFSET ( 1, 0, .AHEAD. ) ;
#306 = CIRCLE ( 'NONE', #187, 7.000000000000000000 ) ;
#307 = CARTESIAN_POINT ( 'NONE',  ( 0.000000000000000000, 0.000000000000000000, 5.199999999999982414 ) ) ;
ENDSEC;
END-ISO-10303-21;
