ISO-10303-21;
HEADER;
FILE_DESCRIPTION (( 'STEP AP203' ),
    '1' );
FILE_NAME ('b4b7.STEP',
    '2022-06-20T10:22:21',
    ( '' ),
    ( '' ),
    'SwSTEP 2.0',
    'SolidWorks 2019',
    '' );
FILE_SCHEMA (( 'CONFIG_CONTROL_DESIGN' ));
ENDSEC;

DATA;
#1 = FACE_OUTER_BOUND ( 'NONE', #240, .T. ) ;
#2 = AXIS2_PLACEMENT_3D ( 'NONE', #30, #170, #224 ) ;
#3 = DIRECTION ( 'NONE',  ( 0.000000000000000000, 0.000000000000000000, 1.000000000000000000 ) ) ;
#4 = CARTESIAN_POINT ( 'NONE',  ( 0.8499999999999999778, 1.040949779275250140E-16, 1.700000000000007061 ) ) ;
#5 = LOCAL_TIME ( 12, 22, 21.00000000000000000, #44 ) ;
#6 = ORIENTED_EDGE ( 'NONE', *, *, #122, .F. ) ;
#7 = CC_DESIGN_PERSON_AND_ORGANIZATION_ASSIGNMENT ( #257, #111, ( #293 ) ) ;
#8 = CARTESIAN_POINT ( 'NONE',  ( 0.000000000000000000, 0.000000000000000000, 1.500000000000000000 ) ) ;
#9 = AXIS2_PLACEMENT_3D ( 'NONE', #98, #102, #161 ) ;
#10 = CARTESIAN_POINT ( 'NONE',  ( 0.000000000000000000, 0.000000000000000000, 0.000000000000000000 ) ) ;
#11 = AXIS2_PLACEMENT_3D ( 'NONE', #84, #199, #177 ) ;
#12 = DIRECTION ( 'NONE',  ( 1.000000000000000000, 0.000000000000000000, -0.000000000000000000 ) ) ;
#13 = APPROVAL ( #116, 'NEURÈENÝ' ) ;
#14 = AXIS2_PLACEMENT_3D ( 'NONE', #118, #79, #290 ) ;
#15 = DATE_AND_TIME ( #232, #5 ) ;
#16 = ORIENTED_EDGE ( 'NONE', *, *, #77, .T. ) ;
#17 = CIRCLE ( 'NONE', #11, 0.8499999999999999778 ) ;
#18 = EDGE_CURVE ( 'NONE', #194, #160, #126, .T. ) ;
#19 = EDGE_LOOP ( 'NONE', ( #95, #136, #264, #21 ) ) ;
#20 = DATE_TIME_ROLE ( 'creation_date' ) ;
#21 = ORIENTED_EDGE ( 'NONE', *, *, #285, .F. ) ;
#22 = VERTEX_POINT ( 'NONE', #4 ) ;
#23 = EDGE_LOOP ( 'NONE', ( #45, #179, #236, #186 ) ) ;
#24 = EDGE_CURVE ( 'NONE', #282, #41, #144, .T. ) ;
#25 = CARTESIAN_POINT ( 'NONE',  ( 2.000000000000000000, 2.449293598294706414E-16, 0.000000000000000000 ) ) ;
#26 = DIRECTION ( 'NONE',  ( 0.000000000000000000, 0.000000000000000000, 1.000000000000000000 ) ) ;
#27 = FACE_OUTER_BOUND ( 'NONE', #78, .T. ) ;
#28 = DIRECTION ( 'NONE',  ( -0.000000000000000000, -0.000000000000000000, -1.000000000000000000 ) ) ;
#29 = DIRECTION ( 'NONE',  ( 0.000000000000000000, 0.000000000000000000, 1.000000000000000000 ) ) ;
#30 = CARTESIAN_POINT ( 'NONE',  ( 0.000000000000000000, 0.000000000000000000, 101.5000000000000000 ) ) ;
#31 = DIRECTION ( 'NONE',  ( 0.000000000000000000, 0.000000000000000000, -1.000000000000000000 ) ) ;
#32 = CIRCLE ( 'NONE', #271, 0.2000000000000000944 ) ;
#33 = APPROVAL ( #66, 'NEURÈENÝ' ) ;
#34 = ORGANIZATION ( 'NEURÈENÝ', 'NEURÈENÝ', '' ) ;
#35 = DIRECTION ( 'NONE',  ( 0.000000000000000000, 0.000000000000000000, 1.000000000000000000 ) ) ;
#36 = AXIS2_PLACEMENT_3D ( 'NONE', #148, #250, #31 ) ;
#37 = FACE_OUTER_BOUND ( 'NONE', #154, .T. ) ;
#38 = PERSON_AND_ORGANIZATION_ROLE ( 'design_owner' ) ;
#39 = CC_DESIGN_DATE_AND_TIME_ASSIGNMENT ( #150, #155, ( #184 ) ) ;
#40 = PERSON_AND_ORGANIZATION ( #65, #34 ) ;
#41 = VERTEX_POINT ( 'NONE', #25 ) ;
#42 = DATE_AND_TIME ( #207, #121 ) ;
#43 = VERTEX_POINT ( 'NONE', #97 ) ;
#44 = COORDINATED_UNIVERSAL_TIME_OFFSET ( 1, 0, .AHEAD. ) ;
#45 = ORIENTED_EDGE ( 'NONE', *, *, #190, .F. ) ;
#46 = CC_DESIGN_PERSON_AND_ORGANIZATION_ASSIGNMENT ( #153, #185, ( #293 ) ) ;
#47 = APPROVAL_DATE_TIME ( #261, #152 ) ;
#48 = AXIS2_PLACEMENT_3D ( 'NONE', #274, #247, #82 ) ;
#49 = ORIENTED_EDGE ( 'NONE', *, *, #256, .F. ) ;
#50 = ADVANCED_FACE ( 'NONE', ( #27 ), #138, .T. ) ;
#51 = ORIENTED_EDGE ( 'NONE', *, *, #248, .T. ) ;
#52 = PRODUCT_DEFINITION ( 'NEZNÁMÝ', '', #293, #67 ) ;
#53 = DIRECTION ( 'NONE',  ( 1.000000000000000000, 0.000000000000000000, 0.000000000000000000 ) ) ;
#54 = LOCAL_TIME ( 12, 22, 21.00000000000000000, #70 ) ;
#55 = ORIENTED_EDGE ( 'NONE', *, *, #60, .F. ) ;
#56 = EDGE_CURVE ( 'NONE', #43, #22, #301, .T. ) ;
#57 = CARTESIAN_POINT ( 'NONE',  ( 1.050000000000000044, 0.000000000000000000, 1.500000000000003553 ) ) ;
#58 = VECTOR ( 'NONE', #28, 1000.000000000000000 ) ;
#59 = CARTESIAN_POINT ( 'NONE',  ( 2.000000000000000000, 2.449293598294706414E-16, 1.500000000000000000 ) ) ;
#60 = EDGE_CURVE ( 'NONE', #157, #278, #200, .T. ) ;
#61 = DIRECTION ( 'NONE',  ( 1.000000000000000000, 0.000000000000000000, 0.000000000000000000 ) ) ;
#62 = FACE_OUTER_BOUND ( 'NONE', #23, .T. ) ;
#63 = ADVANCED_FACE ( 'NONE', ( #193, #1 ), #288, .T. ) ;
#64 = CIRCLE ( 'NONE', #165, 2.000000000000000000 ) ;
#65 = PERSON ( 'NEURÈENÝ', 'NEURÈENÝ', 'NEURÈENÝ', ('NEURÈENÝ'), ('NEURÈENÝ'), ('NEURÈENÝ') ) ;
#66 = APPROVAL_STATUS ( 'not_yet_approved' ) ;
#67 = DESIGN_CONTEXT ( 'detailed design', #252, 'design' ) ;
#68 = PERSON_AND_ORGANIZATION ( #65, #34 ) ;
#69 = ORIENTED_EDGE ( 'NONE', *, *, #248, .F. ) ;
#70 = COORDINATED_UNIVERSAL_TIME_OFFSET ( 1, 0, .AHEAD. ) ;
#71 = ADVANCED_FACE ( 'NONE', ( #215 ), #182, .F. ) ;
#72 = APPROVAL_ROLE ( '' ) ;
#73 = ORIENTED_EDGE ( 'NONE', *, *, #262, .F. ) ;
#74 = CARTESIAN_POINT ( 'NONE',  ( 0.000000000000000000, 0.000000000000000000, 0.000000000000000000 ) ) ;
#75 = CARTESIAN_POINT ( 'NONE',  ( 0.000000000000000000, 0.000000000000000000, 1.500000000000000000 ) ) ;
#76 = CC_DESIGN_APPROVAL ( #152, ( #184 ) ) ;
#77 = EDGE_CURVE ( 'NONE', #41, #282, #162, .T. ) ;
#78 = EDGE_LOOP ( 'NONE', ( #73, #49, #238, #114 ) ) ;
#79 = DIRECTION ( 'NONE',  ( -0.000000000000000000, -0.000000000000000000, -1.000000000000000000 ) ) ;
#80 = CARTESIAN_POINT ( 'NONE',  ( 0.000000000000000000, 0.000000000000000000, 1.700000000000007061 ) ) ;
#81 = VECTOR ( 'NONE', #174, 1000.000000000000000 ) ;
#82 = DIRECTION ( 'NONE',  ( 1.000000000000000000, 0.000000000000000000, 0.000000000000000000 ) ) ;
#83 =( LENGTH_UNIT ( ) NAMED_UNIT ( * ) SI_UNIT ( .MILLI., .METRE. ) );
#84 = CARTESIAN_POINT ( 'NONE',  ( 0.000000000000000000, 0.000000000000000000, 101.5000000000000000 ) ) ;
#85 = APPROVAL_PERSON_ORGANIZATION ( #300, #13, #306 ) ;
#86 = DIRECTION ( 'NONE',  ( 1.000000000000000000, 0.000000000000000000, -0.000000000000000000 ) ) ;
#87 = MANIFOLD_SOLID_BREP ( 'Zaoblit1', #216 ) ;
#88 = PERSON_AND_ORGANIZATION ( #65, #34 ) ;
#89 = ORIENTED_EDGE ( 'NONE', *, *, #56, .T. ) ;
#90 = ORIENTED_EDGE ( 'NONE', *, *, #18, .F. ) ;
#91 = PERSON_AND_ORGANIZATION_ROLE ( 'creator' ) ;
#92 = LOCAL_TIME ( 12, 22, 21.00000000000000000, #112 ) ;
#93 = APPROVAL_ROLE ( '' ) ;
#94 = PERSON_AND_ORGANIZATION_ROLE ( 'classification_officer' ) ;
#95 = ORIENTED_EDGE ( 'NONE', *, *, #56, .F. ) ;
#96 = ADVANCED_FACE ( 'NONE', ( #101 ), #196, .T. ) ;
#97 = CARTESIAN_POINT ( 'NONE',  ( -0.8499999999999999778, 0.000000000000000000, 1.700000000000007061 ) ) ;
#98 = CARTESIAN_POINT ( 'NONE',  ( 0.000000000000000000, 0.000000000000000000, 101.5000000000000000 ) ) ;
#99 = APPLICATION_CONTEXT ( 'configuration controlled 3d designs of mechanical parts and assemblies' ) ;
#100 = DIRECTION ( 'NONE',  ( 1.000000000000000000, 0.000000000000000000, 0.000000000000000000 ) ) ;
#101 = FACE_OUTER_BOUND ( 'NONE', #234, .T. ) ;
#102 = DIRECTION ( 'NONE',  ( 0.000000000000000000, 0.000000000000000000, 1.000000000000000000 ) ) ;
#103 = CARTESIAN_POINT ( 'NONE',  ( 0.000000000000000000, 0.000000000000000000, 101.5000000000000000 ) ) ;
#104 = CARTESIAN_POINT ( 'NONE',  ( 2.000000000000000000, 2.449293598294706414E-16, 1.500000000000000000 ) ) ;
#105 = CIRCLE ( 'NONE', #36, 0.2000000000000000944 ) ;
#106 = DIRECTION ( 'NONE',  ( -0.000000000000000000, -0.000000000000000000, -1.000000000000000000 ) ) ;
#107 = DIRECTION ( 'NONE',  ( -0.000000000000000000, -0.000000000000000000, -1.000000000000000000 ) ) ;
#108 = DIRECTION ( 'NONE',  ( 1.000000000000000000, 0.000000000000000000, 0.000000000000000000 ) ) ;
#109 = CALENDAR_DATE ( 2022, 20, 6 ) ;
#110 = DIRECTION ( 'NONE',  ( 0.000000000000000000, 0.000000000000000000, 1.000000000000000000 ) ) ;
#111 = PERSON_AND_ORGANIZATION_ROLE ( 'design_supplier' ) ;
#112 = COORDINATED_UNIVERSAL_TIME_OFFSET ( 1, 0, .AHEAD. ) ;
#113 =( GEOMETRIC_REPRESENTATION_CONTEXT ( 3 ) GLOBAL_UNCERTAINTY_ASSIGNED_CONTEXT ( ( #180 ) ) GLOBAL_UNIT_ASSIGNED_CONTEXT ( ( #83, #254, #178 ) ) REPRESENTATION_CONTEXT ( 'NONE', 'WORKASPACE' ) );
#114 = ORIENTED_EDGE ( 'NONE', *, *, #24, .T. ) ;
#115 = EDGE_CURVE ( 'NONE', #214, #282, #268, .T. ) ;
#116 = APPROVAL_STATUS ( 'not_yet_approved' ) ;
#117 = CC_DESIGN_DATE_AND_TIME_ASSIGNMENT ( #42, #20, ( #52 ) ) ;
#118 = CARTESIAN_POINT ( 'NONE',  ( 0.000000000000000000, 0.000000000000000000, 1.500000000000000000 ) ) ;
#119 = AXIS2_PLACEMENT_3D ( 'NONE', #244, #26, #245 ) ;
#120 = EDGE_LOOP ( 'NONE', ( #307, #137 ) ) ;
#121 = LOCAL_TIME ( 12, 22, 21.00000000000000000, #235 ) ;
#122 = EDGE_CURVE ( 'NONE', #43, #194, #32, .T. ) ;
#123 = DIRECTION ( 'NONE',  ( 0.000000000000000000, 0.000000000000000000, 1.000000000000000000 ) ) ;
#124 = DIRECTION ( 'NONE',  ( 1.000000000000000000, 0.000000000000000000, 0.000000000000000000 ) ) ;
#125 = DIRECTION ( 'NONE',  ( -1.000000000000000000, 0.000000000000000000, 0.000000000000000000 ) ) ;
#126 = CIRCLE ( 'NONE', #297, 1.050000000000000044 ) ;
#127 = PLANE ( 'NONE',  #223 ) ;
#128 = VECTOR ( 'NONE', #107, 1000.000000000000000 ) ;
#129 = CARTESIAN_POINT ( 'NONE',  ( 0.000000000000000000, 0.000000000000000000, 101.5000000000000000 ) ) ;
#130 = PLANE ( 'NONE',  #197 ) ;
#131 = PERSON_AND_ORGANIZATION ( #65, #34 ) ;
#132 = APPROVAL_DATE_TIME ( #15, #33 ) ;
#133 = EDGE_LOOP ( 'NONE', ( #188, #255 ) ) ;
#134 = ORIENTED_EDGE ( 'NONE', *, *, #256, .T. ) ;
#135 = SHAPE_DEFINITION_REPRESENTATION ( #241, #156 ) ;
#136 = ORIENTED_EDGE ( 'NONE', *, *, #122, .T. ) ;
#137 = ORIENTED_EDGE ( 'NONE', *, *, #190, .T. ) ;
#138 = CYLINDRICAL_SURFACE ( 'NONE', #195, 2.000000000000000000 ) ;
#139 = AXIS2_PLACEMENT_3D ( 'NONE', #140, #3, #124 ) ;
#140 = CARTESIAN_POINT ( 'NONE',  ( 0.000000000000000000, 0.000000000000000000, 1.700000000000007061 ) ) ;
#141 = CC_DESIGN_APPROVAL ( #33, ( #293 ) ) ;
#142 = DIRECTION ( 'NONE',  ( 0.000000000000000000, 0.000000000000000000, 1.000000000000000000 ) ) ;
#143 = ORIENTED_EDGE ( 'NONE', *, *, #229, .F. ) ;
#144 = CIRCLE ( 'NONE', #279, 2.000000000000000000 ) ;
#145 = CARTESIAN_POINT ( 'NONE',  ( -1.050000000000000044, 1.285879139104720732E-16, 1.500000000000003553 ) ) ;
#146 = CC_DESIGN_PERSON_AND_ORGANIZATION_ASSIGNMENT ( #88, #94, ( #184 ) ) ;
#147 = CARTESIAN_POINT ( 'NONE',  ( 0.000000000000000000, 0.000000000000000000, 1.700000000000007061 ) ) ;
#148 = CARTESIAN_POINT ( 'NONE',  ( 1.050000000000000044, 0.000000000000000000, 1.700000000000007061 ) ) ;
#149 = DIRECTION ( 'NONE',  ( 1.000000000000000000, 0.000000000000000000, 0.000000000000000000 ) ) ;
#150 = DATE_AND_TIME ( #109, #54 ) ;
#151 = PRODUCT ( 'b4b7', 'b4b7', '', ( #237 ) ) ;
#152 = APPROVAL ( #304, 'NEURÈENÝ' ) ;
#153 = PERSON_AND_ORGANIZATION ( #65, #34 ) ;
#154 = EDGE_LOOP ( 'NONE', ( #143, #55, #284, #89 ) ) ;
#155 = DATE_TIME_ROLE ( 'classification_date' ) ;
#156 = ADVANCED_BREP_SHAPE_REPRESENTATION ( 'b4b7', ( #87, #276 ), #113 ) ;
#157 = VERTEX_POINT ( 'NONE', #269 ) ;
#158 = CARTESIAN_POINT ( 'NONE',  ( 0.000000000000000000, 0.000000000000000000, 0.000000000000000000 ) ) ;
#159 = AXIS2_PLACEMENT_3D ( 'NONE', #8, #29, #61 ) ;
#160 = VERTEX_POINT ( 'NONE', #57 ) ;
#161 = DIRECTION ( 'NONE',  ( 1.000000000000000000, 0.000000000000000000, 0.000000000000000000 ) ) ;
#162 = CIRCLE ( 'NONE', #119, 2.000000000000000000 ) ;
#163 = DIRECTION ( 'NONE',  ( -1.000000000000000000, 0.000000000000000000, 0.000000000000000000 ) ) ;
#164 = CIRCLE ( 'NONE', #159, 2.000000000000000000 ) ;
#165 = AXIS2_PLACEMENT_3D ( 'NONE', #249, #171, #172 ) ;
#166 = EDGE_CURVE ( 'NONE', #22, #43, #266, .T. ) ;
#167 = ORIENTED_EDGE ( 'NONE', *, *, #24, .F. ) ;
#168 = CC_DESIGN_PERSON_AND_ORGANIZATION_ASSIGNMENT ( #40, #38, ( #151 ) ) ;
#169 = DIRECTION ( 'NONE',  ( 1.224646799147353207E-16, 1.000000000000000000, -0.000000000000000000 ) ) ;
#170 = DIRECTION ( 'NONE',  ( -0.000000000000000000, -0.000000000000000000, -1.000000000000000000 ) ) ;
#171 = DIRECTION ( 'NONE',  ( 0.000000000000000000, 0.000000000000000000, 1.000000000000000000 ) ) ;
#172 = DIRECTION ( 'NONE',  ( 1.000000000000000000, 0.000000000000000000, 0.000000000000000000 ) ) ;
#173 = ADVANCED_FACE ( 'NONE', ( #37 ), #277, .T. ) ;
#174 = DIRECTION ( 'NONE',  ( -0.000000000000000000, -0.000000000000000000, -1.000000000000000000 ) ) ;
#175 = VECTOR ( 'NONE', #228, 1000.000000000000000 ) ;
#176 = ADVANCED_FACE ( 'NONE', ( #294 ), #130, .T. ) ;
#177 = DIRECTION ( 'NONE',  ( 1.000000000000000000, 0.000000000000000000, 0.000000000000000000 ) ) ;
#178 =( NAMED_UNIT ( * ) SI_UNIT ( $, .STERADIAN. ) SOLID_ANGLE_UNIT ( ) );
#179 = ORIENTED_EDGE ( 'NONE', *, *, #229, .T. ) ;
#180 = UNCERTAINTY_MEASURE_WITH_UNIT (LENGTH_MEASURE( 1.000000000000000082E-05 ), #83, 'distance_accuracy_value', 'NONE');
#181 = DIRECTION ( 'NONE',  ( 1.000000000000000000, 0.000000000000000000, 0.000000000000000000 ) ) ;
#182 = TOROIDAL_SURFACE ( 'NONE', #226, 1.050000000000000044, 0.2000000000000000111 ) ;
#183 = VERTEX_POINT ( 'NONE', #104 ) ;
#184 = SECURITY_CLASSIFICATION ( '', '', #281 ) ;
#185 = PERSON_AND_ORGANIZATION_ROLE ( 'creator' ) ;
#186 = ORIENTED_EDGE ( 'NONE', *, *, #204, .F. ) ;
#187 = COORDINATED_UNIVERSAL_TIME_OFFSET ( 1, 0, .AHEAD. ) ;
#188 = ORIENTED_EDGE ( 'NONE', *, *, #272, .T. ) ;
#189 = APPLICATION_PROTOCOL_DEFINITION ( 'international standard', 'config_control_design', 1994, #252 ) ;
#190 = EDGE_CURVE ( 'NONE', #278, #157, #17, .T. ) ;
#191 = DIRECTION ( 'NONE',  ( -0.000000000000000000, -0.000000000000000000, -1.000000000000000000 ) ) ;
#192 = CC_DESIGN_PERSON_AND_ORGANIZATION_ASSIGNMENT ( #68, #91, ( #52 ) ) ;
#193 = FACE_BOUND ( 'NONE', #133, .T. ) ;
#194 = VERTEX_POINT ( 'NONE', #145 ) ;
#195 = AXIS2_PLACEMENT_3D ( 'NONE', #242, #289, #163 ) ;
#196 = CYLINDRICAL_SURFACE ( 'NONE', #14, 2.000000000000000000 ) ;
#197 = AXIS2_PLACEMENT_3D ( 'NONE', #129, #296, #12 ) ;
#198 = DIRECTION ( 'NONE',  ( -1.000000000000000000, 1.224646799147353207E-16, 0.000000000000000000 ) ) ;
#199 = DIRECTION ( 'NONE',  ( 0.000000000000000000, 0.000000000000000000, 1.000000000000000000 ) ) ;
#200 = CIRCLE ( 'NONE', #9, 0.8499999999999999778 ) ;
#201 = CARTESIAN_POINT ( 'NONE',  ( -2.000000000000000000, 0.000000000000000000, 0.000000000000000000 ) ) ;
#202 = CARTESIAN_POINT ( 'NONE',  ( -2.000000000000000000, 0.000000000000000000, 1.500000000000000000 ) ) ;
#203 = FACE_OUTER_BOUND ( 'NONE', #211, .T. ) ;
#204 = EDGE_CURVE ( 'NONE', #157, #43, #230, .T. ) ;
#205 = CARTESIAN_POINT ( 'NONE',  ( 0.8499999999999999778, 1.040949779275250140E-16, 101.5000000000000000 ) ) ;
#206 = CIRCLE ( 'NONE', #48, 1.050000000000000044 ) ;
#207 = CALENDAR_DATE ( 2022, 20, 6 ) ;
#208 = ORIENTED_EDGE ( 'NONE', *, *, #285, .T. ) ;
#209 = EDGE_LOOP ( 'NONE', ( #6, #286, #208, #90 ) ) ;
#210 = CALENDAR_DATE ( 2022, 20, 6 ) ;
#211 = EDGE_LOOP ( 'NONE', ( #167, #305 ) ) ;
#212 = LOCAL_TIME ( 12, 22, 21.00000000000000000, #187 ) ;
#213 = DATE_AND_TIME ( #210, #92 ) ;
#214 = VERTEX_POINT ( 'NONE', #202 ) ;
#215 = FACE_OUTER_BOUND ( 'NONE', #209, .T. ) ;
#216 = CLOSED_SHELL ( 'NONE', ( #231, #217, #96, #50, #63, #295, #173, #176, #71 ) ) ;
#217 = ADVANCED_FACE ( 'NONE', ( #62 ), #273, .T. ) ;
#218 = DIRECTION ( 'NONE',  ( 1.000000000000000000, 0.000000000000000000, 0.000000000000000000 ) ) ;
#219 = CARTESIAN_POINT ( 'NONE',  ( 0.000000000000000000, 0.000000000000000000, 1.500000000000000000 ) ) ;
#220 = DIRECTION ( 'NONE',  ( 0.000000000000000000, 0.000000000000000000, 1.000000000000000000 ) ) ;
#221 = AXIS2_PLACEMENT_3D ( 'NONE', #75, #220, #267 ) ;
#222 = CARTESIAN_POINT ( 'NONE',  ( -1.050000000000000044, 1.285879139104720732E-16, 1.700000000000007061 ) ) ;
#223 = AXIS2_PLACEMENT_3D ( 'NONE', #10, #35, #86 ) ;
#224 = DIRECTION ( 'NONE',  ( -1.000000000000000000, 0.000000000000000000, 0.000000000000000000 ) ) ;
#225 = DIRECTION ( 'NONE',  ( 0.000000000000000000, 0.000000000000000000, 1.000000000000000000 ) ) ;
#226 = AXIS2_PLACEMENT_3D ( 'NONE', #265, #142, #53 ) ;
#227 = APPROVAL_PERSON_ORGANIZATION ( #260, #152, #93 ) ;
#228 = DIRECTION ( 'NONE',  ( -0.000000000000000000, -0.000000000000000000, -1.000000000000000000 ) ) ;
#229 = EDGE_CURVE ( 'NONE', #278, #22, #291, .T. ) ;
#230 = LINE ( 'NONE', #270, #128 ) ;
#231 = ADVANCED_FACE ( 'NONE', ( #275 ), #287, .F. ) ;
#232 = CALENDAR_DATE ( 2022, 20, 6 ) ;
#233 = CC_DESIGN_APPROVAL ( #13, ( #52 ) ) ;
#234 = EDGE_LOOP ( 'NONE', ( #69, #258, #16, #280 ) ) ;
#235 = COORDINATED_UNIVERSAL_TIME_OFFSET ( 1, 0, .AHEAD. ) ;
#236 = ORIENTED_EDGE ( 'NONE', *, *, #166, .T. ) ;
#237 = MECHANICAL_CONTEXT ( 'NONE', #99, 'mechanical' ) ;
#238 = ORIENTED_EDGE ( 'NONE', *, *, #115, .T. ) ;
#239 = APPROVAL_PERSON_ORGANIZATION ( #131, #33, #72 ) ;
#240 = EDGE_LOOP ( 'NONE', ( #134, #51 ) ) ;
#241 = PRODUCT_DEFINITION_SHAPE ( 'NONE', 'NONE',  #52 ) ;
#242 = CARTESIAN_POINT ( 'NONE',  ( 0.000000000000000000, 0.000000000000000000, 1.500000000000000000 ) ) ;
#243 = AXIS2_PLACEMENT_3D ( 'NONE', #103, #106, #125 ) ;
#244 = CARTESIAN_POINT ( 'NONE',  ( 0.000000000000000000, 0.000000000000000000, 0.000000000000000000 ) ) ;
#245 = DIRECTION ( 'NONE',  ( 1.000000000000000000, 0.000000000000000000, 0.000000000000000000 ) ) ;
#246 = CARTESIAN_POINT ( 'NONE',  ( -2.000000000000000000, 0.000000000000000000, 1.500000000000000000 ) ) ;
#247 = DIRECTION ( 'NONE',  ( -0.000000000000000000, -0.000000000000000000, -1.000000000000000000 ) ) ;
#248 = EDGE_CURVE ( 'NONE', #183, #214, #64, .T. ) ;
#249 = CARTESIAN_POINT ( 'NONE',  ( 0.000000000000000000, 0.000000000000000000, 1.500000000000000000 ) ) ;
#250 = DIRECTION ( 'NONE',  ( 0.000000000000000000, -1.000000000000000000, 0.000000000000000000 ) ) ;
#251 = DIRECTION ( 'NONE',  ( 0.000000000000000000, 0.000000000000000000, 1.000000000000000000 ) ) ;
#252 = APPLICATION_CONTEXT ( 'configuration controlled 3d designs of mechanical parts and assemblies' ) ;
#253 = APPLICATION_PROTOCOL_DEFINITION ( 'international standard', 'config_control_design', 1994, #99 ) ;
#254 =( NAMED_UNIT ( * ) PLANE_ANGLE_UNIT ( ) SI_UNIT ( $, .RADIAN. ) );
#255 = ORIENTED_EDGE ( 'NONE', *, *, #18, .T. ) ;
#256 = EDGE_CURVE ( 'NONE', #214, #183, #164, .T. ) ;
#257 = PERSON_AND_ORGANIZATION ( #65, #34 ) ;
#258 = ORIENTED_EDGE ( 'NONE', *, *, #262, .T. ) ;
#259 = PRODUCT_RELATED_PRODUCT_CATEGORY ( 'detail', '', ( #151 ) ) ;
#260 = PERSON_AND_ORGANIZATION ( #65, #34 ) ;
#261 = DATE_AND_TIME ( #283, #212 ) ;
#262 = EDGE_CURVE ( 'NONE', #183, #41, #298, .T. ) ;
#263 = CC_DESIGN_SECURITY_CLASSIFICATION ( #184, ( #293 ) ) ;
#264 = ORIENTED_EDGE ( 'NONE', *, *, #272, .F. ) ;
#265 = CARTESIAN_POINT ( 'NONE',  ( 0.000000000000000000, 0.000000000000000000, 1.700000000000007061 ) ) ;
#266 = CIRCLE ( 'NONE', #299, 0.8499999999999999778 ) ;
#267 = DIRECTION ( 'NONE',  ( 1.000000000000000000, 0.000000000000000000, -0.000000000000000000 ) ) ;
#268 = LINE ( 'NONE', #246, #58 ) ;
#269 = CARTESIAN_POINT ( 'NONE',  ( -0.8499999999999999778, 0.000000000000000000, 101.5000000000000000 ) ) ;
#270 = CARTESIAN_POINT ( 'NONE',  ( -0.8499999999999999778, 0.000000000000000000, 101.5000000000000000 ) ) ;
#271 = AXIS2_PLACEMENT_3D ( 'NONE', #222, #169, #198 ) ;
#272 = EDGE_CURVE ( 'NONE', #160, #194, #206, .T. ) ;
#273 = CYLINDRICAL_SURFACE ( 'NONE', #243, 0.8499999999999999778 ) ;
#274 = CARTESIAN_POINT ( 'NONE',  ( 0.000000000000000000, 0.000000000000000000, 1.500000000000000000 ) ) ;
#275 = FACE_OUTER_BOUND ( 'NONE', #19, .T. ) ;
#276 = AXIS2_PLACEMENT_3D ( 'NONE', #158, #110, #181 ) ;
#277 = CYLINDRICAL_SURFACE ( 'NONE', #2, 0.8499999999999999778 ) ;
#278 = VERTEX_POINT ( 'NONE', #205 ) ;
#279 = AXIS2_PLACEMENT_3D ( 'NONE', #74, #123, #100 ) ;
#280 = ORIENTED_EDGE ( 'NONE', *, *, #115, .F. ) ;
#281 = SECURITY_CLASSIFICATION_LEVEL ( 'unclassified' ) ;
#282 = VERTEX_POINT ( 'NONE', #201 ) ;
#283 = CALENDAR_DATE ( 2022, 20, 6 ) ;
#284 = ORIENTED_EDGE ( 'NONE', *, *, #204, .T. ) ;
#285 = EDGE_CURVE ( 'NONE', #22, #160, #105, .T. ) ;
#286 = ORIENTED_EDGE ( 'NONE', *, *, #166, .F. ) ;
#287 = TOROIDAL_SURFACE ( 'NONE', #303, 1.050000000000000044, 0.2000000000000000111 ) ;
#288 = PLANE ( 'NONE',  #221 ) ;
#289 = DIRECTION ( 'NONE',  ( -0.000000000000000000, -0.000000000000000000, -1.000000000000000000 ) ) ;
#290 = DIRECTION ( 'NONE',  ( -1.000000000000000000, 0.000000000000000000, 0.000000000000000000 ) ) ;
#291 = LINE ( 'NONE', #292, #81 ) ;
#292 = CARTESIAN_POINT ( 'NONE',  ( 0.8499999999999999778, 1.040949779275250140E-16, 101.5000000000000000 ) ) ;
#293 = PRODUCT_DEFINITION_FORMATION_WITH_SPECIFIED_SOURCE ( 'LIBOVOLNÝ', '', #151, .NOT_KNOWN. ) ;
#294 = FACE_OUTER_BOUND ( 'NONE', #120, .T. ) ;
#295 = ADVANCED_FACE ( 'NONE', ( #203 ), #127, .F. ) ;
#296 = DIRECTION ( 'NONE',  ( 0.000000000000000000, 0.000000000000000000, 1.000000000000000000 ) ) ;
#297 = AXIS2_PLACEMENT_3D ( 'NONE', #219, #191, #218 ) ;
#298 = LINE ( 'NONE', #59, #175 ) ;
#299 = AXIS2_PLACEMENT_3D ( 'NONE', #147, #251, #149 ) ;
#300 = PERSON_AND_ORGANIZATION ( #65, #34 ) ;
#301 = CIRCLE ( 'NONE', #139, 0.8499999999999999778 ) ;
#302 = APPROVAL_DATE_TIME ( #213, #13 ) ;
#303 = AXIS2_PLACEMENT_3D ( 'NONE', #80, #225, #108 ) ;
#304 = APPROVAL_STATUS ( 'not_yet_approved' ) ;
#305 = ORIENTED_EDGE ( 'NONE', *, *, #77, .F. ) ;
#306 = APPROVAL_ROLE ( '' ) ;
#307 = ORIENTED_EDGE ( 'NONE', *, *, #60, .T. ) ;
ENDSEC;
END-ISO-10303-21;
