ISO-10303-21;
HEADER;
FILE_DESCRIPTION (( 'STEP AP203' ),
    '1' );
FILE_NAME ('6e3f.STEP',
    '2022-06-20T09:33:01',
    ( '' ),
    ( '' ),
    'SwSTEP 2.0',
    'SolidWorks 2019',
    '' );
FILE_SCHEMA (( 'CONFIG_CONTROL_DESIGN' ));
ENDSEC;

DATA;
#1 = DIRECTION ( 'NONE',  ( 0.000000000000000000, 0.000000000000000000, 1.000000000000000000 ) ) ;
#2 =( LENGTH_UNIT ( ) NAMED_UNIT ( * ) SI_UNIT ( .MILLI., .METRE. ) );
#3 = ORIENTED_EDGE ( 'NONE', *, *, #68, .F. ) ;
#4 = EDGE_CURVE ( 'NONE', #242, #33, #50, .T. ) ;
#5 = FACE_OUTER_BOUND ( 'NONE', #298, .T. ) ;
#6 = COORDINATED_UNIVERSAL_TIME_OFFSET ( 1, 0, .AHEAD. ) ;
#7 = VERTEX_POINT ( 'NONE', #166 ) ;
#8 = VERTEX_POINT ( 'NONE', #51 ) ;
#9 = AXIS2_PLACEMENT_3D ( 'NONE', #193, #74, #208 ) ;
#10 = ORGANIZATION ( 'NEURÈENÝ', 'NEURÈENÝ', '' ) ;
#11 = VERTEX_POINT ( 'NONE', #58 ) ;
#12 = CARTESIAN_POINT ( 'NONE',  ( 0.000000000000000000, 0.000000000000000000, 257.0000000000000000 ) ) ;
#13 = CARTESIAN_POINT ( 'NONE',  ( -9.000000000000000000, 0.000000000000000000, 0.000000000000000000 ) ) ;
#14 = PRODUCT_DEFINITION ( 'NEZNÁMÝ', '', #286, #251 ) ;
#15 = DIRECTION ( 'NONE',  ( 0.000000000000000000, 0.000000000000000000, 1.000000000000000000 ) ) ;
#16 = CARTESIAN_POINT ( 'NONE',  ( 9.000000000000000000, 1.102182119232617714E-15, 7.000000000000000000 ) ) ;
#17 = FACE_OUTER_BOUND ( 'NONE', #198, .T. ) ;
#18 = CIRCLE ( 'NONE', #41, 9.000000000000000000 ) ;
#19 = APPROVAL_ROLE ( '' ) ;
#20 = ORIENTED_EDGE ( 'NONE', *, *, #271, .T. ) ;
#21 = ORIENTED_EDGE ( 'NONE', *, *, #156, .T. ) ;
#22 = PERSON_AND_ORGANIZATION ( #187, #10 ) ;
#23 = APPROVAL ( #75, 'NEURÈENÝ' ) ;
#24 = PERSON_AND_ORGANIZATION ( #187, #10 ) ;
#25 = SECURITY_CLASSIFICATION ( '', '', #126 ) ;
#26 = CALENDAR_DATE ( 2022, 20, 6 ) ;
#27 = ORIENTED_EDGE ( 'NONE', *, *, #307, .F. ) ;
#28 = EDGE_CURVE ( 'NONE', #7, #225, #129, .T. ) ;
#29 = CARTESIAN_POINT ( 'NONE',  ( 0.000000000000000000, 0.000000000000000000, 257.0000000000000000 ) ) ;
#30 = LOCAL_TIME ( 11, 33, 1.000000000000000000, #262 ) ;
#31 = EDGE_LOOP ( 'NONE', ( #168, #128, #195, #3 ) ) ;
#32 = PERSON_AND_ORGANIZATION_ROLE ( 'design_supplier' ) ;
#33 = VERTEX_POINT ( 'NONE', #105 ) ;
#34 = DIRECTION ( 'NONE',  ( 0.000000000000000000, 0.000000000000000000, 1.000000000000000000 ) ) ;
#35 = DIRECTION ( 'NONE',  ( 1.000000000000000000, 0.000000000000000000, -0.000000000000000000 ) ) ;
#36 = CARTESIAN_POINT ( 'NONE',  ( 0.000000000000000000, 0.000000000000000000, 7.000000000000000000 ) ) ;
#37 = DIRECTION ( 'NONE',  ( 0.000000000000000000, 0.000000000000000000, 1.000000000000000000 ) ) ;
#38 = DIRECTION ( 'NONE',  ( 1.000000000000000000, 0.000000000000000000, -0.000000000000000000 ) ) ;
#39 = DIRECTION ( 'NONE',  ( 1.000000000000000000, 0.000000000000000000, 0.000000000000000000 ) ) ;
#40 = DATE_TIME_ROLE ( 'creation_date' ) ;
#41 = AXIS2_PLACEMENT_3D ( 'NONE', #173, #15, #106 ) ;
#42 = APPLICATION_PROTOCOL_DEFINITION ( 'international standard', 'config_control_design', 1994, #174 ) ;
#43 = LOCAL_TIME ( 11, 33, 1.000000000000000000, #72 ) ;
#44 = CC_DESIGN_PERSON_AND_ORGANIZATION_ASSIGNMENT ( #55, #32, ( #286 ) ) ;
#45 = DATE_AND_TIME ( #185, #30 ) ;
#46 = AXIS2_PLACEMENT_3D ( 'NONE', #201, #268, #49 ) ;
#47 = PERSON_AND_ORGANIZATION_ROLE ( 'design_owner' ) ;
#48 = EDGE_CURVE ( 'NONE', #184, #150, #267, .T. ) ;
#49 = DIRECTION ( 'NONE',  ( 0.000000000000000000, 0.000000000000000000, -1.000000000000000000 ) ) ;
#50 = CIRCLE ( 'NONE', #280, 9.000000000000000000 ) ;
#51 = CARTESIAN_POINT ( 'NONE',  ( -6.200000000000001066, 7.592810154713590821E-16, 7.000000000000006217 ) ) ;
#52 = AXIS2_PLACEMENT_3D ( 'NONE', #120, #261, #141 ) ;
#53 = AXIS2_PLACEMENT_3D ( 'NONE', #305, #84, #134 ) ;
#54 = CC_DESIGN_APPROVAL ( #23, ( #25 ) ) ;
#55 = PERSON_AND_ORGANIZATION ( #187, #10 ) ;
#56 = EDGE_LOOP ( 'NONE', ( #76, #151 ) ) ;
#57 = EDGE_CURVE ( 'NONE', #150, #59, #254, .T. ) ;
#58 = CARTESIAN_POINT ( 'NONE',  ( -6.000000000000000888, 0.000000000000000000, 257.0000000000000000 ) ) ;
#59 = VERTEX_POINT ( 'NONE', #299 ) ;
#60 = LOCAL_TIME ( 11, 33, 1.000000000000000000, #211 ) ;
#61 = DIRECTION ( 'NONE',  ( 1.000000000000000000, 0.000000000000000000, 0.000000000000000000 ) ) ;
#62 = CARTESIAN_POINT ( 'NONE',  ( -9.000000000000000000, 0.000000000000000000, 7.000000000000000000 ) ) ;
#63 = CARTESIAN_POINT ( 'NONE',  ( 6.000000000000000888, 7.347880794884120722E-16, 7.200000000000011724 ) ) ;
#64 = AXIS2_PLACEMENT_3D ( 'NONE', #162, #118, #180 ) ;
#65 = CYLINDRICAL_SURFACE ( 'NONE', #177, 6.000000000000000888 ) ;
#66 = APPROVAL_DATE_TIME ( #188, #165 ) ;
#67 = DIRECTION ( 'NONE',  ( 0.000000000000000000, 0.000000000000000000, 1.000000000000000000 ) ) ;
#68 = EDGE_CURVE ( 'NONE', #11, #103, #275, .T. ) ;
#69 = LOCAL_TIME ( 11, 33, 1.000000000000000000, #238 ) ;
#70 = ORIENTED_EDGE ( 'NONE', *, *, #246, .T. ) ;
#71 = DATE_AND_TIME ( #94, #69 ) ;
#72 = COORDINATED_UNIVERSAL_TIME_OFFSET ( 1, 0, .AHEAD. ) ;
#73 = ORIENTED_EDGE ( 'NONE', *, *, #90, .T. ) ;
#74 = DIRECTION ( 'NONE',  ( -0.000000000000000000, -0.000000000000000000, -1.000000000000000000 ) ) ;
#75 = APPROVAL_STATUS ( 'not_yet_approved' ) ;
#76 = ORIENTED_EDGE ( 'NONE', *, *, #4, .F. ) ;
#77 = CC_DESIGN_DATE_AND_TIME_ASSIGNMENT ( #194, #220, ( #25 ) ) ;
#78 = PERSON_AND_ORGANIZATION_ROLE ( 'classification_officer' ) ;
#79 = ORIENTED_EDGE ( 'NONE', *, *, #147, .F. ) ;
#80 = CARTESIAN_POINT ( 'NONE',  ( 6.000000000000000888, 7.347880794884120722E-16, 257.0000000000000000 ) ) ;
#81 = CARTESIAN_POINT ( 'NONE',  ( 0.000000000000000000, 0.000000000000000000, 7.000000000000000000 ) ) ;
#82 = DIRECTION ( 'NONE',  ( 1.000000000000000000, 0.000000000000000000, 0.000000000000000000 ) ) ;
#83 = FACE_OUTER_BOUND ( 'NONE', #266, .T. ) ;
#84 = DIRECTION ( 'NONE',  ( 0.000000000000000000, 0.000000000000000000, 1.000000000000000000 ) ) ;
#85 = AXIS2_PLACEMENT_3D ( 'NONE', #81, #136, #82 ) ;
#86 = PRODUCT_RELATED_PRODUCT_CATEGORY ( 'detail', '', ( #186 ) ) ;
#87 = DIRECTION ( 'NONE',  ( -0.000000000000000000, -0.000000000000000000, -1.000000000000000000 ) ) ;
#88 = CYLINDRICAL_SURFACE ( 'NONE', #64, 9.000000000000000000 ) ;
#89 = EDGE_LOOP ( 'NONE', ( #223, #127 ) ) ;
#90 = EDGE_CURVE ( 'NONE', #184, #11, #139, .T. ) ;
#91 = DIRECTION ( 'NONE',  ( 1.000000000000000000, 0.000000000000000000, 0.000000000000000000 ) ) ;
#92 = APPLICATION_PROTOCOL_DEFINITION ( 'international standard', 'config_control_design', 1994, #284 ) ;
#93 = CIRCLE ( 'NONE', #199, 6.200000000000001066 ) ;
#94 = CALENDAR_DATE ( 2022, 20, 6 ) ;
#95 =( NAMED_UNIT ( * ) PLANE_ANGLE_UNIT ( ) SI_UNIT ( $, .RADIAN. ) );
#96 = DATE_AND_TIME ( #273, #210 ) ;
#97 = ORIENTED_EDGE ( 'NONE', *, *, #222, .T. ) ;
#98 = CIRCLE ( 'NONE', #104, 6.000000000000000888 ) ;
#99 = CYLINDRICAL_SURFACE ( 'NONE', #9, 9.000000000000000000 ) ;
#100 = PERSON_AND_ORGANIZATION ( #187, #10 ) ;
#101 = ADVANCED_FACE ( 'NONE', ( #5 ), #99, .T. ) ;
#102 = CARTESIAN_POINT ( 'NONE',  ( 0.000000000000000000, 0.000000000000000000, 0.000000000000000000 ) ) ;
#103 = VERTEX_POINT ( 'NONE', #249 ) ;
#104 = AXIS2_PLACEMENT_3D ( 'NONE', #287, #1, #91 ) ;
#105 = CARTESIAN_POINT ( 'NONE',  ( 9.000000000000000000, 1.102182119232617714E-15, 0.000000000000000000 ) ) ;
#106 = DIRECTION ( 'NONE',  ( 1.000000000000000000, 0.000000000000000000, 0.000000000000000000 ) ) ;
#107 = DIRECTION ( 'NONE',  ( -0.000000000000000000, -0.000000000000000000, -1.000000000000000000 ) ) ;
#108 = PLANE ( 'NONE',  #111 ) ;
#109 = DIRECTION ( 'NONE',  ( -0.000000000000000000, -0.000000000000000000, -1.000000000000000000 ) ) ;
#110 = CYLINDRICAL_SURFACE ( 'NONE', #119, 6.000000000000000888 ) ;
#111 = AXIS2_PLACEMENT_3D ( 'NONE', #36, #232, #38 ) ;
#112 = CARTESIAN_POINT ( 'NONE',  ( 0.000000000000000000, 0.000000000000000000, 0.000000000000000000 ) ) ;
#113 = ORIENTED_EDGE ( 'NONE', *, *, #57, .F. ) ;
#114 = MECHANICAL_CONTEXT ( 'NONE', #174, 'mechanical' ) ;
#115 = ORIENTED_EDGE ( 'NONE', *, *, #222, .F. ) ;
#116 = APPROVAL_STATUS ( 'not_yet_approved' ) ;
#117 = AXIS2_PLACEMENT_3D ( 'NONE', #29, #122, #219 ) ;
#118 = DIRECTION ( 'NONE',  ( -0.000000000000000000, -0.000000000000000000, -1.000000000000000000 ) ) ;
#119 = AXIS2_PLACEMENT_3D ( 'NONE', #281, #229, #301 ) ;
#120 = CARTESIAN_POINT ( 'NONE',  ( 0.000000000000000000, 0.000000000000000000, 7.200000000000011724 ) ) ;
#121 = ORIENTED_EDGE ( 'NONE', *, *, #304, .T. ) ;
#122 = DIRECTION ( 'NONE',  ( 0.000000000000000000, 0.000000000000000000, 1.000000000000000000 ) ) ;
#123 = CC_DESIGN_SECURITY_CLASSIFICATION ( #25, ( #286 ) ) ;
#124 = ADVANCED_FACE ( 'NONE', ( #306 ), #153, .T. ) ;
#125 = ADVANCED_BREP_SHAPE_REPRESENTATION ( '6e3f', ( #189, #230 ), #140 ) ;
#126 = SECURITY_CLASSIFICATION_LEVEL ( 'unclassified' ) ;
#127 = ORIENTED_EDGE ( 'NONE', *, *, #147, .T. ) ;
#128 = ORIENTED_EDGE ( 'NONE', *, *, #48, .T. ) ;
#129 = CIRCLE ( 'NONE', #152, 9.000000000000000000 ) ;
#130 = DIRECTION ( 'NONE',  ( 1.000000000000000000, 0.000000000000000000, 0.000000000000000000 ) ) ;
#131 = APPROVAL_PERSON_ORGANIZATION ( #100, #23, #289 ) ;
#132 = PLANE ( 'NONE',  #172 ) ;
#133 = FACE_OUTER_BOUND ( 'NONE', #213, .T. ) ;
#134 = DIRECTION ( 'NONE',  ( 1.000000000000000000, 0.000000000000000000, 0.000000000000000000 ) ) ;
#135 = EDGE_CURVE ( 'NONE', #8, #59, #224, .T. ) ;
#136 = DIRECTION ( 'NONE',  ( -0.000000000000000000, -0.000000000000000000, -1.000000000000000000 ) ) ;
#137 = DIRECTION ( 'NONE',  ( 1.000000000000000000, 0.000000000000000000, 0.000000000000000000 ) ) ;
#138 = EDGE_CURVE ( 'NONE', #103, #150, #207, .T. ) ;
#139 = CIRCLE ( 'NONE', #117, 6.000000000000000888 ) ;
#140 =( GEOMETRIC_REPRESENTATION_CONTEXT ( 3 ) GLOBAL_UNCERTAINTY_ASSIGNED_CONTEXT ( ( #270 ) ) GLOBAL_UNIT_ASSIGNED_CONTEXT ( ( #2, #95, #235 ) ) REPRESENTATION_CONTEXT ( 'NONE', 'WORKASPACE' ) );
#141 = DIRECTION ( 'NONE',  ( 1.000000000000000000, 0.000000000000000000, 0.000000000000000000 ) ) ;
#142 = PERSON_AND_ORGANIZATION_ROLE ( 'creator' ) ;
#143 = PRODUCT_DEFINITION_SHAPE ( 'NONE', 'NONE',  #14 ) ;
#144 = CC_DESIGN_DATE_AND_TIME_ASSIGNMENT ( #71, #40, ( #14 ) ) ;
#145 = PERSON_AND_ORGANIZATION ( #187, #10 ) ;
#146 = CARTESIAN_POINT ( 'NONE',  ( -6.000000000000000888, 0.000000000000000000, 257.0000000000000000 ) ) ;
#147 = EDGE_CURVE ( 'NONE', #225, #7, #18, .T. ) ;
#148 = PERSON_AND_ORGANIZATION_ROLE ( 'creator' ) ;
#149 = ORIENTED_EDGE ( 'NONE', *, *, #304, .F. ) ;
#150 = VERTEX_POINT ( 'NONE', #63 ) ;
#151 = ORIENTED_EDGE ( 'NONE', *, *, #256, .F. ) ;
#152 = AXIS2_PLACEMENT_3D ( 'NONE', #170, #34, #130 ) ;
#153 = PLANE ( 'NONE',  #196 ) ;
#154 = AXIS2_PLACEMENT_3D ( 'NONE', #231, #202, #39 ) ;
#155 = CARTESIAN_POINT ( 'NONE',  ( 0.000000000000000000, 0.000000000000000000, 0.000000000000000000 ) ) ;
#156 = EDGE_CURVE ( 'NONE', #7, #242, #176, .T. ) ;
#157 = VECTOR ( 'NONE', #243, 1000.000000000000000 ) ;
#158 = FACE_BOUND ( 'NONE', #245, .T. ) ;
#159 = AXIS2_PLACEMENT_3D ( 'NONE', #155, #303, #61 ) ;
#160 = DIRECTION ( 'NONE',  ( 1.000000000000000000, 0.000000000000000000, 0.000000000000000000 ) ) ;
#161 = TOROIDAL_SURFACE ( 'NONE', #52, 6.200000000000001066, 0.2000000000000000111 ) ;
#162 = CARTESIAN_POINT ( 'NONE',  ( 0.000000000000000000, 0.000000000000000000, 7.000000000000000000 ) ) ;
#163 = APPROVAL_ROLE ( '' ) ;
#164 = CC_DESIGN_PERSON_AND_ORGANIZATION_ASSIGNMENT ( #285, #47, ( #186 ) ) ;
#165 = APPROVAL ( #240, 'NEURÈENÝ' ) ;
#166 = CARTESIAN_POINT ( 'NONE',  ( -9.000000000000000000, 0.000000000000000000, 7.000000000000000000 ) ) ;
#167 = DIRECTION ( 'NONE',  ( -0.000000000000000000, -0.000000000000000000, -1.000000000000000000 ) ) ;
#168 = ORIENTED_EDGE ( 'NONE', *, *, #90, .F. ) ;
#169 = ORIENTED_EDGE ( 'NONE', *, *, #57, .T. ) ;
#170 = CARTESIAN_POINT ( 'NONE',  ( 0.000000000000000000, 0.000000000000000000, 7.000000000000000000 ) ) ;
#171 = FACE_OUTER_BOUND ( 'NONE', #31, .T. ) ;
#172 = AXIS2_PLACEMENT_3D ( 'NONE', #277, #37, #276 ) ;
#173 = CARTESIAN_POINT ( 'NONE',  ( 0.000000000000000000, 0.000000000000000000, 7.000000000000000000 ) ) ;
#174 = APPLICATION_CONTEXT ( 'configuration controlled 3d designs of mechanical parts and assemblies' ) ;
#175 = LINE ( 'NONE', #253, #297 ) ;
#176 = LINE ( 'NONE', #62, #265 ) ;
#177 = AXIS2_PLACEMENT_3D ( 'NONE', #228, #109, #178 ) ;
#178 = DIRECTION ( 'NONE',  ( -1.000000000000000000, 0.000000000000000000, 0.000000000000000000 ) ) ;
#179 = CC_DESIGN_PERSON_AND_ORGANIZATION_ASSIGNMENT ( #24, #142, ( #14 ) ) ;
#180 = DIRECTION ( 'NONE',  ( -1.000000000000000000, 0.000000000000000000, 0.000000000000000000 ) ) ;
#181 = DIRECTION ( 'NONE',  ( 1.224646799147353207E-16, 1.000000000000000000, -0.000000000000000000 ) ) ;
#182 = ORIENTED_EDGE ( 'NONE', *, *, #28, .F. ) ;
#183 = CC_DESIGN_PERSON_AND_ORGANIZATION_ASSIGNMENT ( #145, #78, ( #25 ) ) ;
#184 = VERTEX_POINT ( 'NONE', #300 ) ;
#185 = CALENDAR_DATE ( 2022, 20, 6 ) ;
#186 = PRODUCT ( '6e3f', '6e3f', '', ( #114 ) ) ;
#187 = PERSON ( 'NEURÈENÝ', 'NEURÈENÝ', 'NEURÈENÝ', ('NEURÈENÝ'), ('NEURÈENÝ'), ('NEURÈENÝ') ) ;
#188 = DATE_AND_TIME ( #26, #60 ) ;
#189 = MANIFOLD_SOLID_BREP ( 'Zaoblit1', #290 ) ;
#190 = ADVANCED_FACE ( 'NONE', ( #133 ), #110, .T. ) ;
#191 = TOROIDAL_SURFACE ( 'NONE', #53, 6.200000000000001066, 0.2000000000000000111 ) ;
#192 = EDGE_LOOP ( 'NONE', ( #97, #73 ) ) ;
#193 = CARTESIAN_POINT ( 'NONE',  ( 0.000000000000000000, 0.000000000000000000, 7.000000000000000000 ) ) ;
#194 = DATE_AND_TIME ( #244, #43 ) ;
#195 = ORIENTED_EDGE ( 'NONE', *, *, #307, .T. ) ;
#196 = AXIS2_PLACEMENT_3D ( 'NONE', #12, #278, #35 ) ;
#197 = SHAPE_DEFINITION_REPRESENTATION ( #143, #125 ) ;
#198 = EDGE_LOOP ( 'NONE', ( #79, #70, #291, #218 ) ) ;
#199 = AXIS2_PLACEMENT_3D ( 'NONE', #282, #206, #160 ) ;
#200 = ADVANCED_FACE ( 'NONE', ( #158, #252 ), #108, .T. ) ;
#201 = CARTESIAN_POINT ( 'NONE',  ( 6.200000000000001066, 0.000000000000000000, 7.200000000000011724 ) ) ;
#202 = DIRECTION ( 'NONE',  ( 0.000000000000000000, 0.000000000000000000, 1.000000000000000000 ) ) ;
#203 = FACE_OUTER_BOUND ( 'NONE', #56, .T. ) ;
#204 = CC_DESIGN_APPROVAL ( #217, ( #14 ) ) ;
#205 = DIRECTION ( 'NONE',  ( 1.000000000000000000, 0.000000000000000000, 0.000000000000000000 ) ) ;
#206 = DIRECTION ( 'NONE',  ( -0.000000000000000000, -0.000000000000000000, -1.000000000000000000 ) ) ;
#207 = CIRCLE ( 'NONE', #264, 6.000000000000000888 ) ;
#208 = DIRECTION ( 'NONE',  ( -1.000000000000000000, 0.000000000000000000, 0.000000000000000000 ) ) ;
#209 = CIRCLE ( 'NONE', #154, 6.000000000000000888 ) ;
#210 = LOCAL_TIME ( 11, 33, 1.000000000000000000, #6 ) ;
#211 = COORDINATED_UNIVERSAL_TIME_OFFSET ( 1, 0, .AHEAD. ) ;
#212 = ORIENTED_EDGE ( 'NONE', *, *, #246, .F. ) ;
#213 = EDGE_LOOP ( 'NONE', ( #293, #115, #272, #248 ) ) ;
#214 = CARTESIAN_POINT ( 'NONE',  ( -6.200000000000001066, 7.592810154713590821E-16, 7.200000000000011724 ) ) ;
#215 = ORIENTED_EDGE ( 'NONE', *, *, #135, .T. ) ;
#216 = APPROVAL_DATE_TIME ( #45, #217 ) ;
#217 = APPROVAL ( #116, 'NEURÈENÝ' ) ;
#218 = ORIENTED_EDGE ( 'NONE', *, *, #156, .F. ) ;
#219 = DIRECTION ( 'NONE',  ( 1.000000000000000000, 0.000000000000000000, 0.000000000000000000 ) ) ;
#220 = DATE_TIME_ROLE ( 'classification_date' ) ;
#221 = ORIENTED_EDGE ( 'NONE', *, *, #271, .F. ) ;
#222 = EDGE_CURVE ( 'NONE', #11, #184, #209, .T. ) ;
#223 = ORIENTED_EDGE ( 'NONE', *, *, #28, .T. ) ;
#224 = CIRCLE ( 'NONE', #85, 6.200000000000001066 ) ;
#225 = VERTEX_POINT ( 'NONE', #16 ) ;
#226 = CC_DESIGN_APPROVAL ( #165, ( #286 ) ) ;
#227 = CARTESIAN_POINT ( 'NONE',  ( 0.000000000000000000, 0.000000000000000000, 7.200000000000011724 ) ) ;
#228 = CARTESIAN_POINT ( 'NONE',  ( 0.000000000000000000, 0.000000000000000000, 257.0000000000000000 ) ) ;
#229 = DIRECTION ( 'NONE',  ( -0.000000000000000000, -0.000000000000000000, -1.000000000000000000 ) ) ;
#230 = AXIS2_PLACEMENT_3D ( 'NONE', #112, #67, #137 ) ;
#231 = CARTESIAN_POINT ( 'NONE',  ( 0.000000000000000000, 0.000000000000000000, 257.0000000000000000 ) ) ;
#232 = DIRECTION ( 'NONE',  ( 0.000000000000000000, 0.000000000000000000, 1.000000000000000000 ) ) ;
#233 = CC_DESIGN_PERSON_AND_ORGANIZATION_ASSIGNMENT ( #258, #148, ( #286 ) ) ;
#234 = CIRCLE ( 'NONE', #239, 0.1999999999999996503 ) ;
#235 =( NAMED_UNIT ( * ) SI_UNIT ( $, .STERADIAN. ) SOLID_ANGLE_UNIT ( ) );
#236 = ORIENTED_EDGE ( 'NONE', *, *, #4, .T. ) ;
#237 = ADVANCED_FACE ( 'NONE', ( #171 ), #65, .T. ) ;
#238 = COORDINATED_UNIVERSAL_TIME_OFFSET ( 1, 0, .AHEAD. ) ;
#239 = AXIS2_PLACEMENT_3D ( 'NONE', #214, #181, #283 ) ;
#240 = APPROVAL_STATUS ( 'not_yet_approved' ) ;
#241 = APPROVAL_DATE_TIME ( #96, #23 ) ;
#242 = VERTEX_POINT ( 'NONE', #13 ) ;
#243 = DIRECTION ( 'NONE',  ( -0.000000000000000000, -0.000000000000000000, -1.000000000000000000 ) ) ;
#244 = CALENDAR_DATE ( 2022, 20, 6 ) ;
#245 = EDGE_LOOP ( 'NONE', ( #20, #215 ) ) ;
#246 = EDGE_CURVE ( 'NONE', #225, #33, #175, .T. ) ;
#247 = ORIENTED_EDGE ( 'NONE', *, *, #135, .F. ) ;
#248 = ORIENTED_EDGE ( 'NONE', *, *, #138, .T. ) ;
#249 = CARTESIAN_POINT ( 'NONE',  ( -6.000000000000000888, 0.000000000000000000, 7.200000000000011724 ) ) ;
#250 = ADVANCED_FACE ( 'NONE', ( #203 ), #132, .F. ) ;
#251 = DESIGN_CONTEXT ( 'detailed design', #284, 'design' ) ;
#252 = FACE_OUTER_BOUND ( 'NONE', #89, .T. ) ;
#253 = CARTESIAN_POINT ( 'NONE',  ( 9.000000000000000000, 1.102182119232617714E-15, 7.000000000000000000 ) ) ;
#254 = CIRCLE ( 'NONE', #46, 0.1999999999999996503 ) ;
#255 = DIRECTION ( 'NONE',  ( 0.000000000000000000, 0.000000000000000000, 1.000000000000000000 ) ) ;
#256 = EDGE_CURVE ( 'NONE', #33, #242, #260, .T. ) ;
#257 = FACE_OUTER_BOUND ( 'NONE', #296, .T. ) ;
#258 = PERSON_AND_ORGANIZATION ( #187, #10 ) ;
#259 = ADVANCED_FACE ( 'NONE', ( #83 ), #191, .F. ) ;
#260 = CIRCLE ( 'NONE', #159, 9.000000000000000000 ) ;
#261 = DIRECTION ( 'NONE',  ( 0.000000000000000000, 0.000000000000000000, 1.000000000000000000 ) ) ;
#262 = COORDINATED_UNIVERSAL_TIME_OFFSET ( 1, 0, .AHEAD. ) ;
#263 = PERSON_AND_ORGANIZATION ( #187, #10 ) ;
#264 = AXIS2_PLACEMENT_3D ( 'NONE', #227, #255, #205 ) ;
#265 = VECTOR ( 'NONE', #87, 1000.000000000000000 ) ;
#266 = EDGE_LOOP ( 'NONE', ( #288, #121, #221, #113 ) ) ;
#267 = LINE ( 'NONE', #80, #269 ) ;
#268 = DIRECTION ( 'NONE',  ( 0.000000000000000000, -1.000000000000000000, 0.000000000000000000 ) ) ;
#269 = VECTOR ( 'NONE', #167, 1000.000000000000000 ) ;
#270 = UNCERTAINTY_MEASURE_WITH_UNIT (LENGTH_MEASURE( 1.000000000000000082E-05 ), #2, 'distance_accuracy_value', 'NONE');
#271 = EDGE_CURVE ( 'NONE', #59, #8, #93, .T. ) ;
#272 = ORIENTED_EDGE ( 'NONE', *, *, #68, .T. ) ;
#273 = CALENDAR_DATE ( 2022, 20, 6 ) ;
#274 = DIRECTION ( 'NONE',  ( 0.000000000000000000, 0.000000000000000000, 1.000000000000000000 ) ) ;
#275 = LINE ( 'NONE', #146, #157 ) ;
#276 = DIRECTION ( 'NONE',  ( 1.000000000000000000, 0.000000000000000000, -0.000000000000000000 ) ) ;
#277 = CARTESIAN_POINT ( 'NONE',  ( 0.000000000000000000, 0.000000000000000000, 0.000000000000000000 ) ) ;
#278 = DIRECTION ( 'NONE',  ( 0.000000000000000000, 0.000000000000000000, 1.000000000000000000 ) ) ;
#279 = ADVANCED_FACE ( 'NONE', ( #257 ), #161, .F. ) ;
#280 = AXIS2_PLACEMENT_3D ( 'NONE', #102, #274, #295 ) ;
#281 = CARTESIAN_POINT ( 'NONE',  ( 0.000000000000000000, 0.000000000000000000, 257.0000000000000000 ) ) ;
#282 = CARTESIAN_POINT ( 'NONE',  ( 0.000000000000000000, 0.000000000000000000, 7.000000000000000000 ) ) ;
#283 = DIRECTION ( 'NONE',  ( -1.000000000000000000, 1.224646799147353454E-16, 0.000000000000000000 ) ) ;
#284 = APPLICATION_CONTEXT ( 'configuration controlled 3d designs of mechanical parts and assemblies' ) ;
#285 = PERSON_AND_ORGANIZATION ( #187, #10 ) ;
#286 = PRODUCT_DEFINITION_FORMATION_WITH_SPECIFIED_SOURCE ( 'LIBOVOLNÝ', '', #186, .NOT_KNOWN. ) ;
#287 = CARTESIAN_POINT ( 'NONE',  ( 0.000000000000000000, 0.000000000000000000, 7.200000000000011724 ) ) ;
#288 = ORIENTED_EDGE ( 'NONE', *, *, #138, .F. ) ;
#289 = APPROVAL_ROLE ( '' ) ;
#290 = CLOSED_SHELL ( 'NONE', ( #259, #237, #294, #101, #200, #250, #190, #124, #279 ) ) ;
#291 = ORIENTED_EDGE ( 'NONE', *, *, #256, .T. ) ;
#292 = APPROVAL_PERSON_ORGANIZATION ( #263, #165, #19 ) ;
#293 = ORIENTED_EDGE ( 'NONE', *, *, #48, .F. ) ;
#294 = ADVANCED_FACE ( 'NONE', ( #17 ), #88, .T. ) ;
#295 = DIRECTION ( 'NONE',  ( 1.000000000000000000, 0.000000000000000000, 0.000000000000000000 ) ) ;
#296 = EDGE_LOOP ( 'NONE', ( #149, #27, #169, #247 ) ) ;
#297 = VECTOR ( 'NONE', #107, 1000.000000000000000 ) ;
#298 = EDGE_LOOP ( 'NONE', ( #212, #182, #21, #236 ) ) ;
#299 = CARTESIAN_POINT ( 'NONE',  ( 6.200000000000001066, 0.000000000000000000, 7.000000000000006217 ) ) ;
#300 = CARTESIAN_POINT ( 'NONE',  ( 6.000000000000000888, 7.347880794884120722E-16, 257.0000000000000000 ) ) ;
#301 = DIRECTION ( 'NONE',  ( -1.000000000000000000, 0.000000000000000000, 0.000000000000000000 ) ) ;
#302 = APPROVAL_PERSON_ORGANIZATION ( #22, #217, #163 ) ;
#303 = DIRECTION ( 'NONE',  ( 0.000000000000000000, 0.000000000000000000, 1.000000000000000000 ) ) ;
#304 = EDGE_CURVE ( 'NONE', #103, #8, #234, .T. ) ;
#305 = CARTESIAN_POINT ( 'NONE',  ( 0.000000000000000000, 0.000000000000000000, 7.200000000000011724 ) ) ;
#306 = FACE_OUTER_BOUND ( 'NONE', #192, .T. ) ;
#307 = EDGE_CURVE ( 'NONE', #150, #103, #98, .T. ) ;
ENDSEC;
END-ISO-10303-21;
