ISO-10303-21;
HEADER;
FILE_DESCRIPTION (( 'STEP AP203' ),
    '1' );
FILE_NAME ('c355.STEP',
    '2022-06-20T09:55:00',
    ( '' ),
    ( '' ),
    'SwSTEP 2.0',
    'SolidWorks 2019',
    '' );
FILE_SCHEMA (( 'CONFIG_CONTROL_DESIGN' ));
ENDSEC;

DATA;
#1 = FACE_OUTER_BOUND ( 'NONE', #286, .T. ) ;
#2 = CC_DESIGN_PERSON_AND_ORGANIZATION_ASSIGNMENT ( #36, #134, ( #280 ) ) ;
#3 = DIRECTION ( 'NONE',  ( -0.000000000000000000, -0.000000000000000000, -1.000000000000000000 ) ) ;
#4 = CIRCLE ( 'NONE', #95, 3.250000000000000444 ) ;
#5 = AXIS2_PLACEMENT_3D ( 'NONE', #185, #85, #254 ) ;
#6 = DATE_AND_TIME ( #81, #298 ) ;
#7 = LINE ( 'NONE', #79, #47 ) ;
#8 = CC_DESIGN_PERSON_AND_ORGANIZATION_ASSIGNMENT ( #244, #158, ( #280 ) ) ;
#9 = DIRECTION ( 'NONE',  ( 0.000000000000000000, 0.000000000000000000, 1.000000000000000000 ) ) ;
#10 = DIRECTION ( 'NONE',  ( -0.000000000000000000, -0.000000000000000000, -1.000000000000000000 ) ) ;
#11 = PLANE ( 'NONE',  #5 ) ;
#12 = SECURITY_CLASSIFICATION_LEVEL ( 'unclassified' ) ;
#13 = CARTESIAN_POINT ( 'NONE',  ( -3.450000000000000178, 4.225031457058368824E-16, 5.199999999999996625 ) ) ;
#14 = CARTESIAN_POINT ( 'NONE',  ( 6.000000000000000888, 7.347880794884120722E-16, 0.000000000000000000 ) ) ;
#15 = CARTESIAN_POINT ( 'NONE',  ( -3.450000000000000178, 4.225031457058368824E-16, 4.999999999999998224 ) ) ;
#16 =( NAMED_UNIT ( * ) SI_UNIT ( $, .STERADIAN. ) SOLID_ANGLE_UNIT ( ) );
#17 = APPROVAL_STATUS ( 'not_yet_approved' ) ;
#18 = FACE_OUTER_BOUND ( 'NONE', #118, .T. ) ;
#19 = VERTEX_POINT ( 'NONE', #29 ) ;
#20 = VERTEX_POINT ( 'NONE', #128 ) ;
#21 = VERTEX_POINT ( 'NONE', #269 ) ;
#22 = VERTEX_POINT ( 'NONE', #221 ) ;
#23 = AXIS2_PLACEMENT_3D ( 'NONE', #33, #24, #152 ) ;
#24 = DIRECTION ( 'NONE',  ( 0.000000000000000000, 0.000000000000000000, 1.000000000000000000 ) ) ;
#25 = LOCAL_TIME ( 11, 55, 0.000000000000000000, #109 ) ;
#26 = VERTEX_POINT ( 'NONE', #102 ) ;
#27 = CARTESIAN_POINT ( 'NONE',  ( 0.000000000000000000, 0.000000000000000000, 0.000000000000000000 ) ) ;
#28 = CARTESIAN_POINT ( 'NONE',  ( 0.000000000000000000, 0.000000000000000000, 5.000000000000000000 ) ) ;
#29 = CARTESIAN_POINT ( 'NONE',  ( 3.450000000000000178, 0.000000000000000000, 4.999999999999998224 ) ) ;
#30 = VECTOR ( 'NONE', #43, 1000.000000000000000 ) ;
#31 = ADVANCED_FACE ( 'NONE', ( #1 ), #239, .F. ) ;
#32 = PERSON_AND_ORGANIZATION_ROLE ( 'design_owner' ) ;
#33 = CARTESIAN_POINT ( 'NONE',  ( 0.000000000000000000, 0.000000000000000000, 5.000000000000000000 ) ) ;
#34 = APPROVAL_ROLE ( '' ) ;
#35 = DIRECTION ( 'NONE',  ( 0.000000000000000000, 0.000000000000000000, 1.000000000000000000 ) ) ;
#36 = PERSON_AND_ORGANIZATION ( #133, #68 ) ;
#37 = CC_DESIGN_SECURITY_CLASSIFICATION ( #287, ( #280 ) ) ;
#38 = APPROVAL_ROLE ( '' ) ;
#39 = SHAPE_DEFINITION_REPRESENTATION ( #187, #176 ) ;
#40 = DIRECTION ( 'NONE',  ( -1.000000000000000000, 0.000000000000000000, 0.000000000000000000 ) ) ;
#41 = DIRECTION ( 'NONE',  ( 1.000000000000000000, 0.000000000000000000, 0.000000000000000000 ) ) ;
#42 = AXIS2_PLACEMENT_3D ( 'NONE', #224, #270, #80 ) ;
#43 = DIRECTION ( 'NONE',  ( -0.000000000000000000, -0.000000000000000000, -1.000000000000000000 ) ) ;
#44 = EDGE_LOOP ( 'NONE', ( #74, #100, #105, #288 ) ) ;
#45 = EDGE_CURVE ( 'NONE', #20, #233, #235, .T. ) ;
#46 = EDGE_LOOP ( 'NONE', ( #189, #192 ) ) ;
#47 = VECTOR ( 'NONE', #53, 1000.000000000000000 ) ;
#48 = CIRCLE ( 'NONE', #82, 6.000000000000000888 ) ;
#49 = EDGE_LOOP ( 'NONE', ( #175, #283, #243, #171 ) ) ;
#50 = ORIENTED_EDGE ( 'NONE', *, *, #232, .F. ) ;
#51 = FACE_OUTER_BOUND ( 'NONE', #303, .T. ) ;
#52 = CC_DESIGN_PERSON_AND_ORGANIZATION_ASSIGNMENT ( #272, #293, ( #154 ) ) ;
#53 = DIRECTION ( 'NONE',  ( -0.000000000000000000, -0.000000000000000000, -1.000000000000000000 ) ) ;
#54 = CIRCLE ( 'NONE', #204, 6.000000000000000888 ) ;
#55 = FACE_OUTER_BOUND ( 'NONE', #49, .T. ) ;
#56 = DATE_AND_TIME ( #203, #25 ) ;
#57 = ORIENTED_EDGE ( 'NONE', *, *, #69, .F. ) ;
#58 = CARTESIAN_POINT ( 'NONE',  ( -3.250000000000000444, 0.000000000000000000, 5.199999999999996625 ) ) ;
#59 = DIRECTION ( 'NONE',  ( 0.000000000000000000, 0.000000000000000000, 1.000000000000000000 ) ) ;
#60 = APPLICATION_CONTEXT ( 'configuration controlled 3d designs of mechanical parts and assemblies' ) ;
#61 = CALENDAR_DATE ( 2022, 20, 6 ) ;
#62 = DIRECTION ( 'NONE',  ( 1.000000000000000000, 0.000000000000000000, 0.000000000000000000 ) ) ;
#63 = CARTESIAN_POINT ( 'NONE',  ( 0.000000000000000000, 0.000000000000000000, 5.000000000000000000 ) ) ;
#64 = ADVANCED_FACE ( 'NONE', ( #173 ), #99, .F. ) ;
#65 = CARTESIAN_POINT ( 'NONE',  ( 0.000000000000000000, 0.000000000000000000, 5.199999999999996625 ) ) ;
#66 = CLOSED_SHELL ( 'NONE', ( #64, #188, #165, #196, #139, #31, #249, #297, #110 ) ) ;
#67 = APPROVAL_PERSON_ORGANIZATION ( #225, #78, #107 ) ;
#68 = ORGANIZATION ( 'NEURÈENÝ', 'NEURÈENÝ', '' ) ;
#69 = EDGE_CURVE ( 'NONE', #167, #19, #161, .T. ) ;
#70 = AXIS2_PLACEMENT_3D ( 'NONE', #294, #9, #201 ) ;
#71 = LOCAL_TIME ( 11, 55, 0.000000000000000000, #86 ) ;
#72 = EDGE_LOOP ( 'NONE', ( #258, #261 ) ) ;
#73 = ORIENTED_EDGE ( 'NONE', *, *, #232, .T. ) ;
#74 = ORIENTED_EDGE ( 'NONE', *, *, #228, .F. ) ;
#75 = ORIENTED_EDGE ( 'NONE', *, *, #45, .F. ) ;
#76 = CC_DESIGN_PERSON_AND_ORGANIZATION_ASSIGNMENT ( #180, #32, ( #140 ) ) ;
#77 = DIRECTION ( 'NONE',  ( 0.000000000000000000, 0.000000000000000000, 1.000000000000000000 ) ) ;
#78 = APPROVAL ( #268, 'NEURÈENÝ' ) ;
#79 = CARTESIAN_POINT ( 'NONE',  ( -6.000000000000000888, 0.000000000000000000, 5.000000000000000000 ) ) ;
#80 = DIRECTION ( 'NONE',  ( 0.000000000000000000, 0.000000000000000000, -1.000000000000000000 ) ) ;
#81 = CALENDAR_DATE ( 2022, 20, 6 ) ;
#82 = AXIS2_PLACEMENT_3D ( 'NONE', #273, #138, #159 ) ;
#83 = APPROVAL_DATE_TIME ( #56, #300 ) ;
#84 = APPROVAL ( #17, 'NEURÈENÝ' ) ;
#85 = DIRECTION ( 'NONE',  ( 0.000000000000000000, 0.000000000000000000, 1.000000000000000000 ) ) ;
#86 = COORDINATED_UNIVERSAL_TIME_OFFSET ( 1, 0, .AHEAD. ) ;
#87 = CYLINDRICAL_SURFACE ( 'NONE', #216, 3.250000000000000444 ) ;
#88 = AXIS2_PLACEMENT_3D ( 'NONE', #206, #141, #207 ) ;
#89 =( GEOMETRIC_REPRESENTATION_CONTEXT ( 3 ) GLOBAL_UNCERTAINTY_ASSIGNED_CONTEXT ( ( #98 ) ) GLOBAL_UNIT_ASSIGNED_CONTEXT ( ( #113, #155, #16 ) ) REPRESENTATION_CONTEXT ( 'NONE', 'WORKASPACE' ) );
#90 = PRODUCT_RELATED_PRODUCT_CATEGORY ( 'detail', '', ( #140 ) ) ;
#91 = EDGE_CURVE ( 'NONE', #22, #20, #7, .T. ) ;
#92 = DIRECTION ( 'NONE',  ( 0.000000000000000000, 0.000000000000000000, 1.000000000000000000 ) ) ;
#93 = DATE_AND_TIME ( #220, #71 ) ;
#94 = VERTEX_POINT ( 'NONE', #149 ) ;
#95 = AXIS2_PLACEMENT_3D ( 'NONE', #230, #163, #62 ) ;
#96 = ORIENTED_EDGE ( 'NONE', *, *, #222, .F. ) ;
#97 = ORIENTED_EDGE ( 'NONE', *, *, #222, .T. ) ;
#98 = UNCERTAINTY_MEASURE_WITH_UNIT (LENGTH_MEASURE( 1.000000000000000082E-05 ), #113, 'distance_accuracy_value', 'NONE');
#99 = TOROIDAL_SURFACE ( 'NONE', #271, 3.450000000000000178, 0.2000000000000000111 ) ;
#100 = ORIENTED_EDGE ( 'NONE', *, *, #120, .F. ) ;
#101 = FACE_OUTER_BOUND ( 'NONE', #44, .T. ) ;
#102 = CARTESIAN_POINT ( 'NONE',  ( -3.250000000000000444, 0.000000000000000000, 105.0000000000000142 ) ) ;
#103 = AXIS2_PLACEMENT_3D ( 'NONE', #106, #295, #199 ) ;
#104 = CC_DESIGN_APPROVAL ( #300, ( #280 ) ) ;
#105 = ORIENTED_EDGE ( 'NONE', *, *, #91, .T. ) ;
#106 = CARTESIAN_POINT ( 'NONE',  ( 0.000000000000000000, 0.000000000000000000, 0.000000000000000000 ) ) ;
#107 = APPROVAL_ROLE ( '' ) ;
#108 = CARTESIAN_POINT ( 'NONE',  ( 0.000000000000000000, 0.000000000000000000, 0.000000000000000000 ) ) ;
#109 = COORDINATED_UNIVERSAL_TIME_OFFSET ( 1, 0, .AHEAD. ) ;
#110 = ADVANCED_FACE ( 'NONE', ( #267 ), #213, .F. ) ;
#111 = LOCAL_TIME ( 11, 55, 0.000000000000000000, #162 ) ;
#112 = COORDINATED_UNIVERSAL_TIME_OFFSET ( 1, 0, .AHEAD. ) ;
#113 =( LENGTH_UNIT ( ) NAMED_UNIT ( * ) SI_UNIT ( .MILLI., .METRE. ) );
#114 = CC_DESIGN_DATE_AND_TIME_ASSIGNMENT ( #93, #211, ( #287 ) ) ;
#115 = CARTESIAN_POINT ( 'NONE',  ( 0.000000000000000000, 0.000000000000000000, 105.0000000000000142 ) ) ;
#116 = ORIENTED_EDGE ( 'NONE', *, *, #231, .T. ) ;
#117 = ORIENTED_EDGE ( 'NONE', *, *, #69, .T. ) ;
#118 = EDGE_LOOP ( 'NONE', ( #50, #191, #170, #304 ) ) ;
#119 = MANIFOLD_SOLID_BREP ( 'Zaoblit1', #66 ) ;
#120 = EDGE_CURVE ( 'NONE', #22, #21, #121, .T. ) ;
#121 = CIRCLE ( 'NONE', #23, 6.000000000000000888 ) ;
#122 = CYLINDRICAL_SURFACE ( 'NONE', #291, 3.250000000000000444 ) ;
#123 = CARTESIAN_POINT ( 'NONE',  ( 0.000000000000000000, 0.000000000000000000, 5.199999999999996625 ) ) ;
#124 = PERSON_AND_ORGANIZATION ( #133, #68 ) ;
#125 = CARTESIAN_POINT ( 'NONE',  ( 3.250000000000000444, 3.980102097228898231E-16, 5.199999999999996625 ) ) ;
#126 = MECHANICAL_CONTEXT ( 'NONE', #168, 'mechanical' ) ;
#127 = LOCAL_TIME ( 11, 55, 0.000000000000000000, #112 ) ;
#128 = CARTESIAN_POINT ( 'NONE',  ( -6.000000000000000888, 0.000000000000000000, 0.000000000000000000 ) ) ;
#129 = APPLICATION_PROTOCOL_DEFINITION ( 'international standard', 'config_control_design', 1994, #60 ) ;
#130 = DIRECTION ( 'NONE',  ( 1.000000000000000000, 0.000000000000000000, 0.000000000000000000 ) ) ;
#131 = EDGE_CURVE ( 'NONE', #94, #26, #251, .T. ) ;
#132 = LINE ( 'NONE', #302, #266 ) ;
#133 = PERSON ( 'NEURÈENÝ', 'NEURÈENÝ', 'NEURÈENÝ', ('NEURÈENÝ'), ('NEURÈENÝ'), ('NEURÈENÝ') ) ;
#134 = PERSON_AND_ORGANIZATION_ROLE ( 'design_supplier' ) ;
#135 = DIRECTION ( 'NONE',  ( -0.000000000000000000, -0.000000000000000000, -1.000000000000000000 ) ) ;
#136 = CC_DESIGN_APPROVAL ( #84, ( #287 ) ) ;
#137 = PERSON_AND_ORGANIZATION ( #133, #68 ) ;
#138 = DIRECTION ( 'NONE',  ( 0.000000000000000000, 0.000000000000000000, 1.000000000000000000 ) ) ;
#139 = ADVANCED_FACE ( 'NONE', ( #197, #247 ), #226, .T. ) ;
#140 = PRODUCT ( 'c355', 'c355', '', ( #126 ) ) ;
#141 = DIRECTION ( 'NONE',  ( -0.000000000000000000, -0.000000000000000000, -1.000000000000000000 ) ) ;
#142 = CIRCLE ( 'NONE', #147, 3.450000000000000178 ) ;
#143 = APPROVAL_PERSON_ORGANIZATION ( #124, #300, #34 ) ;
#144 = ORIENTED_EDGE ( 'NONE', *, *, #277, .T. ) ;
#145 = ORIENTED_EDGE ( 'NONE', *, *, #178, .T. ) ;
#146 = EDGE_LOOP ( 'NONE', ( #96, #215, #117, #214 ) ) ;
#147 = AXIS2_PLACEMENT_3D ( 'NONE', #172, #3, #264 ) ;
#148 = AXIS2_PLACEMENT_3D ( 'NONE', #65, #210, #253 ) ;
#149 = CARTESIAN_POINT ( 'NONE',  ( 3.250000000000000444, 3.980102097228898231E-16, 105.0000000000000142 ) ) ;
#150 = DIRECTION ( 'NONE',  ( 1.000000000000000000, 0.000000000000000000, -0.000000000000000000 ) ) ;
#151 = DESIGN_CONTEXT ( 'detailed design', #60, 'design' ) ;
#152 = DIRECTION ( 'NONE',  ( 1.000000000000000000, 0.000000000000000000, 0.000000000000000000 ) ) ;
#153 = DIRECTION ( 'NONE',  ( 0.000000000000000000, 0.000000000000000000, 1.000000000000000000 ) ) ;
#154 = PRODUCT_DEFINITION ( 'NEZNÁMÝ', '', #280, #151 ) ;
#155 =( NAMED_UNIT ( * ) PLANE_ANGLE_UNIT ( ) SI_UNIT ( $, .RADIAN. ) );
#156 = APPROVAL_STATUS ( 'not_yet_approved' ) ;
#157 = DIRECTION ( 'NONE',  ( 1.224646799147353207E-16, 1.000000000000000000, -0.000000000000000000 ) ) ;
#158 = PERSON_AND_ORGANIZATION_ROLE ( 'creator' ) ;
#159 = DIRECTION ( 'NONE',  ( 1.000000000000000000, 0.000000000000000000, 0.000000000000000000 ) ) ;
#160 = APPROVAL_DATE_TIME ( #252, #84 ) ;
#161 = CIRCLE ( 'NONE', #42, 0.1999999999999996503 ) ;
#162 = COORDINATED_UNIVERSAL_TIME_OFFSET ( 1, 0, .AHEAD. ) ;
#163 = DIRECTION ( 'NONE',  ( 0.000000000000000000, 0.000000000000000000, 1.000000000000000000 ) ) ;
#164 = VECTOR ( 'NONE', #135, 1000.000000000000000 ) ;
#165 = ADVANCED_FACE ( 'NONE', ( #55 ), #174, .T. ) ;
#166 = LINE ( 'NONE', #259, #30 ) ;
#167 = VERTEX_POINT ( 'NONE', #125 ) ;
#168 = APPLICATION_CONTEXT ( 'configuration controlled 3d designs of mechanical parts and assemblies' ) ;
#169 = CC_DESIGN_PERSON_AND_ORGANIZATION_ASSIGNMENT ( #205, #299, ( #287 ) ) ;
#170 = ORIENTED_EDGE ( 'NONE', *, *, #282, .T. ) ;
#171 = ORIENTED_EDGE ( 'NONE', *, *, #91, .F. ) ;
#172 = CARTESIAN_POINT ( 'NONE',  ( 0.000000000000000000, 0.000000000000000000, 5.000000000000000000 ) ) ;
#173 = FACE_OUTER_BOUND ( 'NONE', #305, .T. ) ;
#174 = CYLINDRICAL_SURFACE ( 'NONE', #275, 6.000000000000000888 ) ;
#175 = ORIENTED_EDGE ( 'NONE', *, *, #285, .F. ) ;
#176 = ADVANCED_BREP_SHAPE_REPRESENTATION ( 'c355', ( #119, #227 ), #89 ) ;
#177 = CARTESIAN_POINT ( 'NONE',  ( 0.000000000000000000, 0.000000000000000000, 105.0000000000000142 ) ) ;
#178 = EDGE_CURVE ( 'NONE', #260, #19, #142, .T. ) ;
#179 = DIRECTION ( 'NONE',  ( 1.000000000000000000, 0.000000000000000000, 0.000000000000000000 ) ) ;
#180 = PERSON_AND_ORGANIZATION ( #133, #68 ) ;
#181 = AXIS2_PLACEMENT_3D ( 'NONE', #13, #157, #182 ) ;
#182 = DIRECTION ( 'NONE',  ( -1.000000000000000000, 1.224646799147350742E-16, 0.000000000000000000 ) ) ;
#183 = CARTESIAN_POINT ( 'NONE',  ( 0.000000000000000000, 0.000000000000000000, 105.0000000000000142 ) ) ;
#184 = CIRCLE ( 'NONE', #306, 3.450000000000000178 ) ;
#185 = CARTESIAN_POINT ( 'NONE',  ( 0.000000000000000000, 0.000000000000000000, 105.0000000000000142 ) ) ;
#186 = DIRECTION ( 'NONE',  ( 1.000000000000000000, 0.000000000000000000, 0.000000000000000000 ) ) ;
#187 = PRODUCT_DEFINITION_SHAPE ( 'NONE', 'NONE',  #154 ) ;
#188 = ADVANCED_FACE ( 'NONE', ( #51 ), #122, .T. ) ;
#189 = ORIENTED_EDGE ( 'NONE', *, *, #263, .T. ) ;
#190 = AXIS2_PLACEMENT_3D ( 'NONE', #115, #92, #186 ) ;
#191 = ORIENTED_EDGE ( 'NONE', *, *, #263, .F. ) ;
#192 = ORIENTED_EDGE ( 'NONE', *, *, #131, .T. ) ;
#193 = CIRCLE ( 'NONE', #181, 0.2000000000000000944 ) ;
#194 = ORIENTED_EDGE ( 'NONE', *, *, #277, .F. ) ;
#195 = CYLINDRICAL_SURFACE ( 'NONE', #88, 6.000000000000000888 ) ;
#196 = ADVANCED_FACE ( 'NONE', ( #101 ), #195, .T. ) ;
#197 = FACE_BOUND ( 'NONE', #262, .T. ) ;
#198 = DIRECTION ( 'NONE',  ( 0.000000000000000000, 0.000000000000000000, 1.000000000000000000 ) ) ;
#199 = DIRECTION ( 'NONE',  ( 1.000000000000000000, 0.000000000000000000, 0.000000000000000000 ) ) ;
#200 = COORDINATED_UNIVERSAL_TIME_OFFSET ( 1, 0, .AHEAD. ) ;
#201 = DIRECTION ( 'NONE',  ( 1.000000000000000000, 0.000000000000000000, -0.000000000000000000 ) ) ;
#202 = AXIS2_PLACEMENT_3D ( 'NONE', #177, #77, #130 ) ;
#203 = CALENDAR_DATE ( 2022, 20, 6 ) ;
#204 = AXIS2_PLACEMENT_3D ( 'NONE', #63, #35, #179 ) ;
#205 = PERSON_AND_ORGANIZATION ( #133, #68 ) ;
#206 = CARTESIAN_POINT ( 'NONE',  ( 0.000000000000000000, 0.000000000000000000, 5.000000000000000000 ) ) ;
#207 = DIRECTION ( 'NONE',  ( -1.000000000000000000, 0.000000000000000000, 0.000000000000000000 ) ) ;
#208 = AXIS2_PLACEMENT_3D ( 'NONE', #108, #59, #150 ) ;
#209 = CC_DESIGN_DATE_AND_TIME_ASSIGNMENT ( #250, #223, ( #154 ) ) ;
#210 = DIRECTION ( 'NONE',  ( 0.000000000000000000, 0.000000000000000000, 1.000000000000000000 ) ) ;
#211 = DATE_TIME_ROLE ( 'classification_date' ) ;
#212 = ORIENTED_EDGE ( 'NONE', *, *, #282, .F. ) ;
#213 = TOROIDAL_SURFACE ( 'NONE', #240, 3.450000000000000178, 0.2000000000000000111 ) ;
#214 = ORIENTED_EDGE ( 'NONE', *, *, #178, .F. ) ;
#215 = ORIENTED_EDGE ( 'NONE', *, *, #231, .F. ) ;
#216 = AXIS2_PLACEMENT_3D ( 'NONE', #183, #278, #40 ) ;
#217 = EDGE_CURVE ( 'NONE', #284, #167, #4, .T. ) ;
#218 = DIRECTION ( 'NONE',  ( -0.000000000000000000, -0.000000000000000000, -1.000000000000000000 ) ) ;
#219 = CARTESIAN_POINT ( 'NONE',  ( 0.000000000000000000, 0.000000000000000000, 5.199999999999996625 ) ) ;
#220 = CALENDAR_DATE ( 2022, 20, 6 ) ;
#221 = CARTESIAN_POINT ( 'NONE',  ( -6.000000000000000888, 0.000000000000000000, 5.000000000000000000 ) ) ;
#222 = EDGE_CURVE ( 'NONE', #284, #260, #193, .T. ) ;
#223 = DATE_TIME_ROLE ( 'creation_date' ) ;
#224 = CARTESIAN_POINT ( 'NONE',  ( 3.450000000000000178, 0.000000000000000000, 5.199999999999996625 ) ) ;
#225 = PERSON_AND_ORGANIZATION ( #133, #68 ) ;
#226 = PLANE ( 'NONE',  #70 ) ;
#227 = AXIS2_PLACEMENT_3D ( 'NONE', #27, #198, #246 ) ;
#228 = EDGE_CURVE ( 'NONE', #21, #233, #248, .T. ) ;
#229 = CALENDAR_DATE ( 2022, 20, 6 ) ;
#230 = CARTESIAN_POINT ( 'NONE',  ( 0.000000000000000000, 0.000000000000000000, 5.199999999999996625 ) ) ;
#231 = EDGE_CURVE ( 'NONE', #167, #284, #292, .T. ) ;
#232 = EDGE_CURVE ( 'NONE', #94, #167, #132, .T. ) ;
#233 = VERTEX_POINT ( 'NONE', #14 ) ;
#234 = ORIENTED_EDGE ( 'NONE', *, *, #131, .F. ) ;
#235 = CIRCLE ( 'NONE', #103, 6.000000000000000888 ) ;
#236 = APPLICATION_PROTOCOL_DEFINITION ( 'international standard', 'config_control_design', 1994, #168 ) ;
#237 = ORIENTED_EDGE ( 'NONE', *, *, #217, .F. ) ;
#238 = EDGE_CURVE ( 'NONE', #233, #20, #48, .T. ) ;
#239 = PLANE ( 'NONE',  #208 ) ;
#240 = AXIS2_PLACEMENT_3D ( 'NONE', #123, #290, #289 ) ;
#241 = APPROVAL_PERSON_ORGANIZATION ( #137, #84, #38 ) ;
#242 = CARTESIAN_POINT ( 'NONE',  ( 0.000000000000000000, 0.000000000000000000, 105.0000000000000142 ) ) ;
#243 = ORIENTED_EDGE ( 'NONE', *, *, #238, .T. ) ;
#244 = PERSON_AND_ORGANIZATION ( #133, #68 ) ;
#245 = DIRECTION ( 'NONE',  ( 1.000000000000000000, 0.000000000000000000, 0.000000000000000000 ) ) ;
#246 = DIRECTION ( 'NONE',  ( 1.000000000000000000, 0.000000000000000000, 0.000000000000000000 ) ) ;
#247 = FACE_OUTER_BOUND ( 'NONE', #72, .T. ) ;
#248 = LINE ( 'NONE', #255, #164 ) ;
#249 = ADVANCED_FACE ( 'NONE', ( #18 ), #87, .T. ) ;
#250 = DATE_AND_TIME ( #61, #127 ) ;
#251 = CIRCLE ( 'NONE', #202, 3.250000000000000444 ) ;
#252 = DATE_AND_TIME ( #229, #111 ) ;
#253 = DIRECTION ( 'NONE',  ( 1.000000000000000000, 0.000000000000000000, 0.000000000000000000 ) ) ;
#254 = DIRECTION ( 'NONE',  ( 1.000000000000000000, 0.000000000000000000, -0.000000000000000000 ) ) ;
#255 = CARTESIAN_POINT ( 'NONE',  ( 6.000000000000000888, 7.347880794884120722E-16, 5.000000000000000000 ) ) ;
#256 = DIRECTION ( 'NONE',  ( -0.000000000000000000, -0.000000000000000000, -1.000000000000000000 ) ) ;
#257 = CIRCLE ( 'NONE', #190, 3.250000000000000444 ) ;
#258 = ORIENTED_EDGE ( 'NONE', *, *, #120, .T. ) ;
#259 = CARTESIAN_POINT ( 'NONE',  ( -3.250000000000000444, 0.000000000000000000, 105.0000000000000142 ) ) ;
#260 = VERTEX_POINT ( 'NONE', #15 ) ;
#261 = ORIENTED_EDGE ( 'NONE', *, *, #285, .T. ) ;
#262 = EDGE_LOOP ( 'NONE', ( #144, #145 ) ) ;
#263 = EDGE_CURVE ( 'NONE', #26, #94, #257, .T. ) ;
#264 = DIRECTION ( 'NONE',  ( 1.000000000000000000, 0.000000000000000000, 0.000000000000000000 ) ) ;
#265 = DIRECTION ( 'NONE',  ( -0.000000000000000000, -0.000000000000000000, -1.000000000000000000 ) ) ;
#266 = VECTOR ( 'NONE', #10, 1000.000000000000000 ) ;
#267 = FACE_OUTER_BOUND ( 'NONE', #146, .T. ) ;
#268 = APPROVAL_STATUS ( 'not_yet_approved' ) ;
#269 = CARTESIAN_POINT ( 'NONE',  ( 6.000000000000000888, 7.347880794884120722E-16, 5.000000000000000000 ) ) ;
#270 = DIRECTION ( 'NONE',  ( 0.000000000000000000, -1.000000000000000000, 0.000000000000000000 ) ) ;
#271 = AXIS2_PLACEMENT_3D ( 'NONE', #219, #153, #245 ) ;
#272 = PERSON_AND_ORGANIZATION ( #133, #68 ) ;
#273 = CARTESIAN_POINT ( 'NONE',  ( 0.000000000000000000, 0.000000000000000000, 0.000000000000000000 ) ) ;
#274 = APPROVAL_DATE_TIME ( #6, #78 ) ;
#275 = AXIS2_PLACEMENT_3D ( 'NONE', #28, #265, #296 ) ;
#276 = FACE_OUTER_BOUND ( 'NONE', #46, .T. ) ;
#277 = EDGE_CURVE ( 'NONE', #19, #260, #184, .T. ) ;
#278 = DIRECTION ( 'NONE',  ( -0.000000000000000000, -0.000000000000000000, -1.000000000000000000 ) ) ;
#279 = CARTESIAN_POINT ( 'NONE',  ( 0.000000000000000000, 0.000000000000000000, 5.000000000000000000 ) ) ;
#280 = PRODUCT_DEFINITION_FORMATION_WITH_SPECIFIED_SOURCE ( 'LIBOVOLNÝ', '', #140, .NOT_KNOWN. ) ;
#281 = ORIENTED_EDGE ( 'NONE', *, *, #238, .F. ) ;
#282 = EDGE_CURVE ( 'NONE', #26, #284, #166, .T. ) ;
#283 = ORIENTED_EDGE ( 'NONE', *, *, #228, .T. ) ;
#284 = VERTEX_POINT ( 'NONE', #58 ) ;
#285 = EDGE_CURVE ( 'NONE', #21, #22, #54, .T. ) ;
#286 = EDGE_LOOP ( 'NONE', ( #75, #281 ) ) ;
#287 = SECURITY_CLASSIFICATION ( '', '', #12 ) ;
#288 = ORIENTED_EDGE ( 'NONE', *, *, #45, .T. ) ;
#289 = DIRECTION ( 'NONE',  ( 1.000000000000000000, 0.000000000000000000, 0.000000000000000000 ) ) ;
#290 = DIRECTION ( 'NONE',  ( 0.000000000000000000, 0.000000000000000000, 1.000000000000000000 ) ) ;
#291 = AXIS2_PLACEMENT_3D ( 'NONE', #242, #218, #307 ) ;
#292 = CIRCLE ( 'NONE', #148, 3.250000000000000444 ) ;
#293 = PERSON_AND_ORGANIZATION_ROLE ( 'creator' ) ;
#294 = CARTESIAN_POINT ( 'NONE',  ( 0.000000000000000000, 0.000000000000000000, 5.000000000000000000 ) ) ;
#295 = DIRECTION ( 'NONE',  ( 0.000000000000000000, 0.000000000000000000, 1.000000000000000000 ) ) ;
#296 = DIRECTION ( 'NONE',  ( -1.000000000000000000, 0.000000000000000000, 0.000000000000000000 ) ) ;
#297 = ADVANCED_FACE ( 'NONE', ( #276 ), #11, .T. ) ;
#298 = LOCAL_TIME ( 11, 55, 0.000000000000000000, #200 ) ;
#299 = PERSON_AND_ORGANIZATION_ROLE ( 'classification_officer' ) ;
#300 = APPROVAL ( #156, 'NEURÈENÝ' ) ;
#301 = CC_DESIGN_APPROVAL ( #78, ( #154 ) ) ;
#302 = CARTESIAN_POINT ( 'NONE',  ( 3.250000000000000444, 3.980102097228898231E-16, 105.0000000000000142 ) ) ;
#303 = EDGE_LOOP ( 'NONE', ( #234, #73, #116, #212 ) ) ;
#304 = ORIENTED_EDGE ( 'NONE', *, *, #217, .T. ) ;
#305 = EDGE_LOOP ( 'NONE', ( #237, #97, #194, #57 ) ) ;
#306 = AXIS2_PLACEMENT_3D ( 'NONE', #279, #256, #41 ) ;
#307 = DIRECTION ( 'NONE',  ( -1.000000000000000000, 0.000000000000000000, 0.000000000000000000 ) ) ;
ENDSEC;
END-ISO-10303-21;
