ISO-10303-21;
HEADER;
FILE_DESCRIPTION (( 'STEP AP203' ),
    '1' );
FILE_NAME ('6632.STEP',
    '2022-06-20T10:08:00',
    ( '' ),
    ( '' ),
    'SwSTEP 2.0',
    'SolidWorks 2019',
    '' );
FILE_SCHEMA (( 'CONFIG_CONTROL_DESIGN' ));
ENDSEC;

DATA;
#1 = CALENDAR_DATE ( 2022, 20, 6 ) ;
#2 = EDGE_LOOP ( 'NONE', ( #84, #273, #155, #197 ) ) ;
#3 = CC_DESIGN_PERSON_AND_ORGANIZATION_ASSIGNMENT ( #164, #190, ( #269 ) ) ;
#4 = CARTESIAN_POINT ( 'NONE',  ( 0.000000000000000000, 0.000000000000000000, 253.0000000000000000 ) ) ;
#5 = AXIS2_PLACEMENT_3D ( 'NONE', #168, #170, #51 ) ;
#6 = ORIENTED_EDGE ( 'NONE', *, *, #104, .F. ) ;
#7 = ORIENTED_EDGE ( 'NONE', *, *, #285, .F. ) ;
#8 = APPROVAL ( #280, 'NEURÈENÝ' ) ;
#9 = PERSON_AND_ORGANIZATION_ROLE ( 'creator' ) ;
#10 = CARTESIAN_POINT ( 'NONE',  ( 0.000000000000000000, 0.000000000000000000, 253.0000000000000000 ) ) ;
#11 = DIRECTION ( 'NONE',  ( -0.000000000000000000, -0.000000000000000000, -1.000000000000000000 ) ) ;
#12 = AXIS2_PLACEMENT_3D ( 'NONE', #209, #115, #204 ) ;
#13 = PLANE ( 'NONE',  #36 ) ;
#14 = CARTESIAN_POINT ( 'NONE',  ( -2.100000000000000089, 0.000000000000000000, 253.0000000000000000 ) ) ;
#15 = DIRECTION ( 'NONE',  ( 0.000000000000000000, 0.000000000000000000, 1.000000000000000000 ) ) ;
#16 = LOCAL_TIME ( 12, 8, 0.000000000000000000, #105 ) ;
#17 = CYLINDRICAL_SURFACE ( 'NONE', #163, 4.000000000000000000 ) ;
#18 = EDGE_CURVE ( 'NONE', #268, #82, #201, .T. ) ;
#19 = APPLICATION_PROTOCOL_DEFINITION ( 'international standard', 'config_control_design', 1994, #259 ) ;
#20 = DIRECTION ( 'NONE',  ( 1.000000000000000000, 0.000000000000000000, 0.000000000000000000 ) ) ;
#21 = CIRCLE ( 'NONE', #291, 2.100000000000000089 ) ;
#22 = CIRCLE ( 'NONE', #179, 0.2000000000000000944 ) ;
#23 = CIRCLE ( 'NONE', #180, 2.100000000000000089 ) ;
#24 = CARTESIAN_POINT ( 'NONE',  ( -4.000000000000000000, 0.000000000000000000, 3.000000000000000000 ) ) ;
#25 = UNCERTAINTY_MEASURE_WITH_UNIT (LENGTH_MEASURE( 1.000000000000000082E-05 ), #186, 'distance_accuracy_value', 'NONE');
#26 = CIRCLE ( 'NONE', #140, 2.300000000000000266 ) ;
#27 = PERSON_AND_ORGANIZATION ( #47, #266 ) ;
#28 = ORIENTED_EDGE ( 'NONE', *, *, #99, .F. ) ;
#29 = ORIENTED_EDGE ( 'NONE', *, *, #96, .F. ) ;
#30 = ORIENTED_EDGE ( 'NONE', *, *, #167, .F. ) ;
#31 = CIRCLE ( 'NONE', #56, 4.000000000000000000 ) ;
#32 = VERTEX_POINT ( 'NONE', #103 ) ;
#33 = EDGE_LOOP ( 'NONE', ( #249, #30, #146, #271 ) ) ;
#34 = CARTESIAN_POINT ( 'NONE',  ( 2.100000000000000089, 2.571758278209441957E-16, 253.0000000000000000 ) ) ;
#35 = CARTESIAN_POINT ( 'NONE',  ( -4.000000000000000000, 0.000000000000000000, 3.000000000000000000 ) ) ;
#36 = AXIS2_PLACEMENT_3D ( 'NONE', #113, #294, #90 ) ;
#37 = DIRECTION ( 'NONE',  ( 0.000000000000000000, 0.000000000000000000, 1.000000000000000000 ) ) ;
#38 = FACE_OUTER_BOUND ( 'NONE', #55, .T. ) ;
#39 = PRODUCT_RELATED_PRODUCT_CATEGORY ( 'detail', '', ( #269 ) ) ;
#40 = FACE_OUTER_BOUND ( 'NONE', #108, .T. ) ;
#41 = AXIS2_PLACEMENT_3D ( 'NONE', #231, #256, #277 ) ;
#42 = AXIS2_PLACEMENT_3D ( 'NONE', #238, #215, #144 ) ;
#43 = CARTESIAN_POINT ( 'NONE',  ( 2.100000000000000089, 2.571758278209441957E-16, 253.0000000000000000 ) ) ;
#44 = COORDINATED_UNIVERSAL_TIME_OFFSET ( 1, 0, .AHEAD. ) ;
#45 = ADVANCED_FACE ( 'NONE', ( #192 ), #120, .F. ) ;
#46 = CARTESIAN_POINT ( 'NONE',  ( 0.000000000000000000, 0.000000000000000000, 3.000000000000000000 ) ) ;
#47 = PERSON ( 'NEURÈENÝ', 'NEURÈENÝ', 'NEURÈENÝ', ('NEURÈENÝ'), ('NEURÈENÝ'), ('NEURÈENÝ') ) ;
#48 = PLANE ( 'NONE',  #101 ) ;
#49 = DIRECTION ( 'NONE',  ( 0.000000000000000000, 0.000000000000000000, 1.000000000000000000 ) ) ;
#50 = CC_DESIGN_APPROVAL ( #60, ( #183 ) ) ;
#51 = DIRECTION ( 'NONE',  ( 1.000000000000000000, 0.000000000000000000, 0.000000000000000000 ) ) ;
#52 = CYLINDRICAL_SURFACE ( 'NONE', #161, 4.000000000000000000 ) ;
#53 = EDGE_CURVE ( 'NONE', #32, #176, #22, .T. ) ;
#54 = APPROVAL_STATUS ( 'not_yet_approved' ) ;
#55 = EDGE_LOOP ( 'NONE', ( #224, #134, #265, #131 ) ) ;
#56 = AXIS2_PLACEMENT_3D ( 'NONE', #298, #15, #89 ) ;
#57 = ORIENTED_EDGE ( 'NONE', *, *, #240, .T. ) ;
#58 = ORIENTED_EDGE ( 'NONE', *, *, #18, .T. ) ;
#59 = DIRECTION ( 'NONE',  ( 1.000000000000000000, 0.000000000000000000, 0.000000000000000000 ) ) ;
#60 = APPROVAL ( #281, 'NEURÈENÝ' ) ;
#61 = CARTESIAN_POINT ( 'NONE',  ( 0.000000000000000000, 0.000000000000000000, 3.000000000000000000 ) ) ;
#62 = APPROVAL_PERSON_ORGANIZATION ( #130, #293, #173 ) ;
#63 = AXIS2_PLACEMENT_3D ( 'NONE', #260, #234, #119 ) ;
#64 = CARTESIAN_POINT ( 'NONE',  ( 0.000000000000000000, 0.000000000000000000, 3.000000000000000000 ) ) ;
#65 = EDGE_CURVE ( 'NONE', #82, #268, #21, .T. ) ;
#66 = FACE_OUTER_BOUND ( 'NONE', #87, .T. ) ;
#67 = LINE ( 'NONE', #35, #107 ) ;
#68 = PRODUCT_DEFINITION_FORMATION_WITH_SPECIFIED_SOURCE ( 'LIBOVOLNÝ', '', #269, .NOT_KNOWN. ) ;
#69 = DIRECTION ( 'NONE',  ( 1.000000000000000000, 0.000000000000000000, -0.000000000000000000 ) ) ;
#70 = FACE_OUTER_BOUND ( 'NONE', #126, .T. ) ;
#71 = ADVANCED_FACE ( 'NONE', ( #286 ), #52, .T. ) ;
#72 = VERTEX_POINT ( 'NONE', #181 ) ;
#73 = AXIS2_PLACEMENT_3D ( 'NONE', #139, #230, #229 ) ;
#74 = APPROVAL_ROLE ( '' ) ;
#75 = CC_DESIGN_DATE_AND_TIME_ASSIGNMENT ( #235, #97, ( #183 ) ) ;
#76 = PERSON_AND_ORGANIZATION ( #47, #266 ) ;
#77 = EDGE_LOOP ( 'NONE', ( #128, #7, #287, #220 ) ) ;
#78 = CARTESIAN_POINT ( 'NONE',  ( -2.300000000000000266, 2.816687638038912549E-16, 3.200000000000008171 ) ) ;
#79 = CC_DESIGN_APPROVAL ( #8, ( #68 ) ) ;
#80 = SHAPE_DEFINITION_REPRESENTATION ( #132, #221 ) ;
#81 = ORIENTED_EDGE ( 'NONE', *, *, #305, .F. ) ;
#82 = VERTEX_POINT ( 'NONE', #14 ) ;
#83 = CALENDAR_DATE ( 2022, 20, 6 ) ;
#84 = ORIENTED_EDGE ( 'NONE', *, *, #18, .F. ) ;
#85 = AXIS2_PLACEMENT_3D ( 'NONE', #182, #136, #295 ) ;
#86 =( GEOMETRIC_REPRESENTATION_CONTEXT ( 3 ) GLOBAL_UNCERTAINTY_ASSIGNED_CONTEXT ( ( #25 ) ) GLOBAL_UNIT_ASSIGNED_CONTEXT ( ( #186, #304, #141 ) ) REPRESENTATION_CONTEXT ( 'NONE', 'WORKASPACE' ) );
#87 = EDGE_LOOP ( 'NONE', ( #154, #199, #28, #29 ) ) ;
#88 = EDGE_CURVE ( 'NONE', #82, #32, #252, .T. ) ;
#89 = DIRECTION ( 'NONE',  ( 1.000000000000000000, 0.000000000000000000, 0.000000000000000000 ) ) ;
#90 = DIRECTION ( 'NONE',  ( 1.000000000000000000, 0.000000000000000000, -0.000000000000000000 ) ) ;
#91 = DIRECTION ( 'NONE',  ( 0.000000000000000000, 0.000000000000000000, 1.000000000000000000 ) ) ;
#92 = CC_DESIGN_PERSON_AND_ORGANIZATION_ASSIGNMENT ( #27, #288, ( #68 ) ) ;
#93 = DIRECTION ( 'NONE',  ( -1.000000000000000000, 0.000000000000000000, 0.000000000000000000 ) ) ;
#94 = PLANE ( 'NONE',  #175 ) ;
#95 = PERSON_AND_ORGANIZATION_ROLE ( 'creator' ) ;
#96 = EDGE_CURVE ( 'NONE', #267, #72, #188, .T. ) ;
#97 = DATE_TIME_ROLE ( 'creation_date' ) ;
#98 = ORIENTED_EDGE ( 'NONE', *, *, #123, .F. ) ;
#99 = EDGE_CURVE ( 'NONE', #72, #176, #129, .T. ) ;
#100 = VECTOR ( 'NONE', #11, 1000.000000000000000 ) ;
#101 = AXIS2_PLACEMENT_3D ( 'NONE', #46, #124, #69 ) ;
#102 = APPROVAL_DATE_TIME ( #193, #293 ) ;
#103 = CARTESIAN_POINT ( 'NONE',  ( -2.100000000000000089, 0.000000000000000000, 3.200000000000008171 ) ) ;
#104 = EDGE_CURVE ( 'NONE', #149, #152, #31, .T. ) ;
#105 = COORDINATED_UNIVERSAL_TIME_OFFSET ( 1, 0, .AHEAD. ) ;
#106 = DIRECTION ( 'NONE',  ( 0.000000000000000000, 0.000000000000000000, 1.000000000000000000 ) ) ;
#107 = VECTOR ( 'NONE', #205, 1000.000000000000000 ) ;
#108 = EDGE_LOOP ( 'NONE', ( #81, #57, #226, #282 ) ) ;
#109 = ORIENTED_EDGE ( 'NONE', *, *, #300, .T. ) ;
#110 = DIRECTION ( 'NONE',  ( 0.000000000000000000, 0.000000000000000000, 1.000000000000000000 ) ) ;
#111 = CC_DESIGN_PERSON_AND_ORGANIZATION_ASSIGNMENT ( #219, #171, ( #196 ) ) ;
#112 = LINE ( 'NONE', #203, #169 ) ;
#113 = CARTESIAN_POINT ( 'NONE',  ( 0.000000000000000000, 0.000000000000000000, 253.0000000000000000 ) ) ;
#114 = DIRECTION ( 'NONE',  ( -0.000000000000000000, -0.000000000000000000, -1.000000000000000000 ) ) ;
#115 = DIRECTION ( 'NONE',  ( 0.000000000000000000, 0.000000000000000000, 1.000000000000000000 ) ) ;
#116 = APPROVAL_PERSON_ORGANIZATION ( #303, #60, #74 ) ;
#117 = DIRECTION ( 'NONE',  ( 1.000000000000000000, 0.000000000000000000, 0.000000000000000000 ) ) ;
#118 = PERSON_AND_ORGANIZATION ( #47, #266 ) ;
#119 = DIRECTION ( 'NONE',  ( 1.000000000000000000, 0.000000000000000000, 0.000000000000000000 ) ) ;
#120 = TOROIDAL_SURFACE ( 'NONE', #5, 2.300000000000000266, 0.2000000000000000111 ) ;
#121 = APPLICATION_PROTOCOL_DEFINITION ( 'international standard', 'config_control_design', 1994, #241 ) ;
#122 = CARTESIAN_POINT ( 'NONE',  ( 0.000000000000000000, 0.000000000000000000, 3.000000000000000000 ) ) ;
#123 = EDGE_CURVE ( 'NONE', #152, #149, #216, .T. ) ;
#124 = DIRECTION ( 'NONE',  ( 0.000000000000000000, 0.000000000000000000, 1.000000000000000000 ) ) ;
#125 = VECTOR ( 'NONE', #135, 1000.000000000000000 ) ;
#126 = EDGE_LOOP ( 'NONE', ( #174, #127 ) ) ;
#127 = ORIENTED_EDGE ( 'NONE', *, *, #305, .T. ) ;
#128 = ORIENTED_EDGE ( 'NONE', *, *, #53, .F. ) ;
#129 = CIRCLE ( 'NONE', #296, 2.300000000000000266 ) ;
#130 = PERSON_AND_ORGANIZATION ( #47, #266 ) ;
#131 = ORIENTED_EDGE ( 'NONE', *, *, #198, .T. ) ;
#132 = PRODUCT_DEFINITION_SHAPE ( 'NONE', 'NONE',  #183 ) ;
#133 = APPROVAL_ROLE ( '' ) ;
#134 = ORIENTED_EDGE ( 'NONE', *, *, #65, .F. ) ;
#135 = DIRECTION ( 'NONE',  ( -0.000000000000000000, -0.000000000000000000, -1.000000000000000000 ) ) ;
#136 = DIRECTION ( 'NONE',  ( 0.000000000000000000, 0.000000000000000000, 1.000000000000000000 ) ) ;
#137 = CARTESIAN_POINT ( 'NONE',  ( -2.300000000000000266, 2.816687638038912549E-16, 3.000000000000004441 ) ) ;
#138 = CARTESIAN_POINT ( 'NONE',  ( 0.000000000000000000, 0.000000000000000000, 253.0000000000000000 ) ) ;
#139 = CARTESIAN_POINT ( 'NONE',  ( 0.000000000000000000, 0.000000000000000000, 3.200000000000008171 ) ) ;
#140 = AXIS2_PLACEMENT_3D ( 'NONE', #122, #214, #264 ) ;
#141 =( NAMED_UNIT ( * ) SI_UNIT ( $, .STERADIAN. ) SOLID_ANGLE_UNIT ( ) );
#142 = EDGE_CURVE ( 'NONE', #289, #152, #67, .T. ) ;
#143 = CALENDAR_DATE ( 2022, 20, 6 ) ;
#144 = DIRECTION ( 'NONE',  ( -1.000000000000000000, 0.000000000000000000, 0.000000000000000000 ) ) ;
#145 = AXIS2_PLACEMENT_3D ( 'NONE', #10, #110, #200 ) ;
#146 = ORIENTED_EDGE ( 'NONE', *, *, #142, .T. ) ;
#147 = ADVANCED_FACE ( 'NONE', ( #184 ), #94, .F. ) ;
#148 = MECHANICAL_CONTEXT ( 'NONE', #241, 'mechanical' ) ;
#149 = VERTEX_POINT ( 'NONE', #255 ) ;
#150 = APPROVAL_DATE_TIME ( #227, #8 ) ;
#151 = CARTESIAN_POINT ( 'NONE',  ( 0.000000000000000000, 0.000000000000000000, 3.000000000000000000 ) ) ;
#152 = VERTEX_POINT ( 'NONE', #275 ) ;
#153 = CC_DESIGN_PERSON_AND_ORGANIZATION_ASSIGNMENT ( #76, #9, ( #68 ) ) ;
#154 = ORIENTED_EDGE ( 'NONE', *, *, #198, .F. ) ;
#155 = ORIENTED_EDGE ( 'NONE', *, *, #285, .T. ) ;
#156 = FACE_OUTER_BOUND ( 'NONE', #187, .T. ) ;
#157 = ADVANCED_FACE ( 'NONE', ( #40 ), #17, .T. ) ;
#158 = DIRECTION ( 'NONE',  ( -0.000000000000000000, -0.000000000000000000, -1.000000000000000000 ) ) ;
#159 = DIRECTION ( 'NONE',  ( -0.000000000000000000, -0.000000000000000000, -1.000000000000000000 ) ) ;
#160 = ADVANCED_FACE ( 'NONE', ( #38 ), #177, .T. ) ;
#161 = AXIS2_PLACEMENT_3D ( 'NONE', #151, #159, #207 ) ;
#162 = DATE_AND_TIME ( #283, #257 ) ;
#163 = AXIS2_PLACEMENT_3D ( 'NONE', #276, #158, #274 ) ;
#164 = PERSON_AND_ORGANIZATION ( #47, #266 ) ;
#165 = COORDINATED_UNIVERSAL_TIME_OFFSET ( 1, 0, .AHEAD. ) ;
#166 = COORDINATED_UNIVERSAL_TIME_OFFSET ( 1, 0, .AHEAD. ) ;
#167 = EDGE_CURVE ( 'NONE', #289, #172, #302, .T. ) ;
#168 = CARTESIAN_POINT ( 'NONE',  ( 0.000000000000000000, 0.000000000000000000, 3.200000000000008171 ) ) ;
#169 = VECTOR ( 'NONE', #292, 1000.000000000000000 ) ;
#170 = DIRECTION ( 'NONE',  ( 0.000000000000000000, 0.000000000000000000, 1.000000000000000000 ) ) ;
#171 = PERSON_AND_ORGANIZATION_ROLE ( 'classification_officer' ) ;
#172 = VERTEX_POINT ( 'NONE', #232 ) ;
#173 = APPROVAL_ROLE ( '' ) ;
#174 = ORIENTED_EDGE ( 'NONE', *, *, #167, .T. ) ;
#175 = AXIS2_PLACEMENT_3D ( 'NONE', #233, #91, #250 ) ;
#176 = VERTEX_POINT ( 'NONE', #137 ) ;
#177 = CYLINDRICAL_SURFACE ( 'NONE', #307, 2.100000000000000089 ) ;
#178 = FACE_BOUND ( 'NONE', #247, .T. ) ;
#179 = AXIS2_PLACEMENT_3D ( 'NONE', #78, #243, #222 ) ;
#180 = AXIS2_PLACEMENT_3D ( 'NONE', #261, #49, #20 ) ;
#181 = CARTESIAN_POINT ( 'NONE',  ( 2.300000000000000266, 0.000000000000000000, 3.000000000000004441 ) ) ;
#182 = CARTESIAN_POINT ( 'NONE',  ( 0.000000000000000000, 0.000000000000000000, 0.000000000000000000 ) ) ;
#183 = PRODUCT_DEFINITION ( 'NEZNÁMÝ', '', #68, #211 ) ;
#184 = FACE_OUTER_BOUND ( 'NONE', #245, .T. ) ;
#185 = PERSON_AND_ORGANIZATION ( #47, #266 ) ;
#186 =( LENGTH_UNIT ( ) NAMED_UNIT ( * ) SI_UNIT ( .MILLI., .METRE. ) );
#187 = EDGE_LOOP ( 'NONE', ( #228, #58 ) ) ;
#188 = CIRCLE ( 'NONE', #41, 0.2000000000000000944 ) ;
#189 = CC_DESIGN_APPROVAL ( #293, ( #196 ) ) ;
#190 = PERSON_AND_ORGANIZATION_ROLE ( 'design_owner' ) ;
#191 = DATE_AND_TIME ( #1, #16 ) ;
#192 = FACE_OUTER_BOUND ( 'NONE', #77, .T. ) ;
#193 = DATE_AND_TIME ( #246, #236 ) ;
#194 = DIRECTION ( 'NONE',  ( 1.000000000000000000, 0.000000000000000000, 0.000000000000000000 ) ) ;
#195 = TOROIDAL_SURFACE ( 'NONE', #73, 2.300000000000000266, 0.2000000000000000111 ) ;
#196 = SECURITY_CLASSIFICATION ( '', '', #242 ) ;
#197 = ORIENTED_EDGE ( 'NONE', *, *, #88, .F. ) ;
#198 = EDGE_CURVE ( 'NONE', #32, #267, #206, .T. ) ;
#199 = ORIENTED_EDGE ( 'NONE', *, *, #53, .T. ) ;
#200 = DIRECTION ( 'NONE',  ( 1.000000000000000000, 0.000000000000000000, 0.000000000000000000 ) ) ;
#201 = CIRCLE ( 'NONE', #145, 2.100000000000000089 ) ;
#202 = AXIS2_PLACEMENT_3D ( 'NONE', #210, #237, #301 ) ;
#203 = CARTESIAN_POINT ( 'NONE',  ( 4.000000000000000000, 4.898587196589412829E-16, 3.000000000000000000 ) ) ;
#204 = DIRECTION ( 'NONE',  ( 1.000000000000000000, 0.000000000000000000, 0.000000000000000000 ) ) ;
#205 = DIRECTION ( 'NONE',  ( -0.000000000000000000, -0.000000000000000000, -1.000000000000000000 ) ) ;
#206 = CIRCLE ( 'NONE', #12, 2.100000000000000089 ) ;
#207 = DIRECTION ( 'NONE',  ( -1.000000000000000000, 0.000000000000000000, 0.000000000000000000 ) ) ;
#208 = CC_DESIGN_PERSON_AND_ORGANIZATION_ASSIGNMENT ( #118, #95, ( #183 ) ) ;
#209 = CARTESIAN_POINT ( 'NONE',  ( 0.000000000000000000, 0.000000000000000000, 3.200000000000008171 ) ) ;
#210 = CARTESIAN_POINT ( 'NONE',  ( 0.000000000000000000, 0.000000000000000000, 3.000000000000000000 ) ) ;
#211 = DESIGN_CONTEXT ( 'detailed design', #259, 'design' ) ;
#212 = CARTESIAN_POINT ( 'NONE',  ( 2.100000000000000089, 2.571758278209441957E-16, 3.200000000000008171 ) ) ;
#213 = LOCAL_TIME ( 12, 8, 0.000000000000000000, #44 ) ;
#214 = DIRECTION ( 'NONE',  ( -0.000000000000000000, -0.000000000000000000, -1.000000000000000000 ) ) ;
#215 = DIRECTION ( 'NONE',  ( -0.000000000000000000, -0.000000000000000000, -1.000000000000000000 ) ) ;
#216 = CIRCLE ( 'NONE', #85, 4.000000000000000000 ) ;
#217 = CIRCLE ( 'NONE', #202, 4.000000000000000000 ) ;
#218 = ADVANCED_FACE ( 'NONE', ( #66 ), #195, .F. ) ;
#219 = PERSON_AND_ORGANIZATION ( #47, #266 ) ;
#220 = ORIENTED_EDGE ( 'NONE', *, *, #300, .F. ) ;
#221 = ADVANCED_BREP_SHAPE_REPRESENTATION ( '6632', ( #225, #63 ), #86 ) ;
#222 = DIRECTION ( 'NONE',  ( -1.000000000000000000, 1.224646799147353207E-16, 0.000000000000000000 ) ) ;
#223 = EDGE_CURVE ( 'NONE', #268, #267, #299, .T. ) ;
#224 = ORIENTED_EDGE ( 'NONE', *, *, #223, .F. ) ;
#225 = MANIFOLD_SOLID_BREP ( 'Zaoblit1', #306 ) ;
#226 = ORIENTED_EDGE ( 'NONE', *, *, #104, .T. ) ;
#227 = DATE_AND_TIME ( #83, #297 ) ;
#228 = ORIENTED_EDGE ( 'NONE', *, *, #65, .T. ) ;
#229 = DIRECTION ( 'NONE',  ( 1.000000000000000000, 0.000000000000000000, 0.000000000000000000 ) ) ;
#230 = DIRECTION ( 'NONE',  ( 0.000000000000000000, 0.000000000000000000, 1.000000000000000000 ) ) ;
#231 = CARTESIAN_POINT ( 'NONE',  ( 2.300000000000000266, 0.000000000000000000, 3.200000000000008171 ) ) ;
#232 = CARTESIAN_POINT ( 'NONE',  ( 4.000000000000000000, 4.898587196589412829E-16, 3.000000000000000000 ) ) ;
#233 = CARTESIAN_POINT ( 'NONE',  ( 0.000000000000000000, 0.000000000000000000, 0.000000000000000000 ) ) ;
#234 = DIRECTION ( 'NONE',  ( 0.000000000000000000, 0.000000000000000000, 1.000000000000000000 ) ) ;
#235 = DATE_AND_TIME ( #143, #213 ) ;
#236 = LOCAL_TIME ( 12, 8, 0.000000000000000000, #270 ) ;
#237 = DIRECTION ( 'NONE',  ( 0.000000000000000000, 0.000000000000000000, 1.000000000000000000 ) ) ;
#238 = CARTESIAN_POINT ( 'NONE',  ( 0.000000000000000000, 0.000000000000000000, 253.0000000000000000 ) ) ;
#239 = CYLINDRICAL_SURFACE ( 'NONE', #42, 2.100000000000000089 ) ;
#240 = EDGE_CURVE ( 'NONE', #172, #149, #112, .T. ) ;
#241 = APPLICATION_CONTEXT ( 'configuration controlled 3d designs of mechanical parts and assemblies' ) ;
#242 = SECURITY_CLASSIFICATION_LEVEL ( 'unclassified' ) ;
#243 = DIRECTION ( 'NONE',  ( 1.224646799147353207E-16, 1.000000000000000000, -0.000000000000000000 ) ) ;
#244 = ADVANCED_FACE ( 'NONE', ( #156 ), #13, .T. ) ;
#245 = EDGE_LOOP ( 'NONE', ( #98, #6 ) ) ;
#246 = CALENDAR_DATE ( 2022, 20, 6 ) ;
#247 = EDGE_LOOP ( 'NONE', ( #290, #109 ) ) ;
#248 = APPROVAL_PERSON_ORGANIZATION ( #185, #8, #133 ) ;
#249 = ORIENTED_EDGE ( 'NONE', *, *, #240, .F. ) ;
#250 = DIRECTION ( 'NONE',  ( 1.000000000000000000, 0.000000000000000000, -0.000000000000000000 ) ) ;
#251 = CC_DESIGN_DATE_AND_TIME_ASSIGNMENT ( #191, #284, ( #196 ) ) ;
#252 = LINE ( 'NONE', #278, #100 ) ;
#253 = CC_DESIGN_SECURITY_CLASSIFICATION ( #196, ( #68 ) ) ;
#254 = DIRECTION ( 'NONE',  ( -0.000000000000000000, -0.000000000000000000, -1.000000000000000000 ) ) ;
#255 = CARTESIAN_POINT ( 'NONE',  ( 4.000000000000000000, 4.898587196589412829E-16, 0.000000000000000000 ) ) ;
#256 = DIRECTION ( 'NONE',  ( 0.000000000000000000, -1.000000000000000000, 0.000000000000000000 ) ) ;
#257 = LOCAL_TIME ( 12, 8, 0.000000000000000000, #165 ) ;
#258 = APPROVAL_DATE_TIME ( #162, #60 ) ;
#259 = APPLICATION_CONTEXT ( 'configuration controlled 3d designs of mechanical parts and assemblies' ) ;
#260 = CARTESIAN_POINT ( 'NONE',  ( 0.000000000000000000, 0.000000000000000000, 0.000000000000000000 ) ) ;
#261 = CARTESIAN_POINT ( 'NONE',  ( 0.000000000000000000, 0.000000000000000000, 3.200000000000008171 ) ) ;
#262 = FACE_OUTER_BOUND ( 'NONE', #2, .T. ) ;
#263 = ADVANCED_FACE ( 'NONE', ( #178, #70 ), #48, .T. ) ;
#264 = DIRECTION ( 'NONE',  ( 1.000000000000000000, 0.000000000000000000, 0.000000000000000000 ) ) ;
#265 = ORIENTED_EDGE ( 'NONE', *, *, #88, .T. ) ;
#266 = ORGANIZATION ( 'NEURÈENÝ', 'NEURÈENÝ', '' ) ;
#267 = VERTEX_POINT ( 'NONE', #212 ) ;
#268 = VERTEX_POINT ( 'NONE', #43 ) ;
#269 = PRODUCT ( '6632', '6632', '', ( #148 ) ) ;
#270 = COORDINATED_UNIVERSAL_TIME_OFFSET ( 1, 0, .AHEAD. ) ;
#271 = ORIENTED_EDGE ( 'NONE', *, *, #123, .T. ) ;
#272 = AXIS2_PLACEMENT_3D ( 'NONE', #61, #37, #117 ) ;
#273 = ORIENTED_EDGE ( 'NONE', *, *, #223, .T. ) ;
#274 = DIRECTION ( 'NONE',  ( -1.000000000000000000, 0.000000000000000000, 0.000000000000000000 ) ) ;
#275 = CARTESIAN_POINT ( 'NONE',  ( -4.000000000000000000, 0.000000000000000000, 0.000000000000000000 ) ) ;
#276 = CARTESIAN_POINT ( 'NONE',  ( 0.000000000000000000, 0.000000000000000000, 3.000000000000000000 ) ) ;
#277 = DIRECTION ( 'NONE',  ( 0.000000000000000000, 0.000000000000000000, -1.000000000000000000 ) ) ;
#278 = CARTESIAN_POINT ( 'NONE',  ( -2.100000000000000089, 0.000000000000000000, 253.0000000000000000 ) ) ;
#279 = ADVANCED_FACE ( 'NONE', ( #262 ), #239, .T. ) ;
#280 = APPROVAL_STATUS ( 'not_yet_approved' ) ;
#281 = APPROVAL_STATUS ( 'not_yet_approved' ) ;
#282 = ORIENTED_EDGE ( 'NONE', *, *, #142, .F. ) ;
#283 = CALENDAR_DATE ( 2022, 20, 6 ) ;
#284 = DATE_TIME_ROLE ( 'classification_date' ) ;
#285 = EDGE_CURVE ( 'NONE', #267, #32, #23, .T. ) ;
#286 = FACE_OUTER_BOUND ( 'NONE', #33, .T. ) ;
#287 = ORIENTED_EDGE ( 'NONE', *, *, #96, .T. ) ;
#288 = PERSON_AND_ORGANIZATION_ROLE ( 'design_supplier' ) ;
#289 = VERTEX_POINT ( 'NONE', #24 ) ;
#290 = ORIENTED_EDGE ( 'NONE', *, *, #99, .T. ) ;
#291 = AXIS2_PLACEMENT_3D ( 'NONE', #4, #106, #194 ) ;
#292 = DIRECTION ( 'NONE',  ( -0.000000000000000000, -0.000000000000000000, -1.000000000000000000 ) ) ;
#293 = APPROVAL ( #54, 'NEURÈENÝ' ) ;
#294 = DIRECTION ( 'NONE',  ( 0.000000000000000000, 0.000000000000000000, 1.000000000000000000 ) ) ;
#295 = DIRECTION ( 'NONE',  ( 1.000000000000000000, 0.000000000000000000, 0.000000000000000000 ) ) ;
#296 = AXIS2_PLACEMENT_3D ( 'NONE', #64, #114, #59 ) ;
#297 = LOCAL_TIME ( 12, 8, 0.000000000000000000, #166 ) ;
#298 = CARTESIAN_POINT ( 'NONE',  ( 0.000000000000000000, 0.000000000000000000, 0.000000000000000000 ) ) ;
#299 = LINE ( 'NONE', #34, #125 ) ;
#300 = EDGE_CURVE ( 'NONE', #176, #72, #26, .T. ) ;
#301 = DIRECTION ( 'NONE',  ( 1.000000000000000000, 0.000000000000000000, 0.000000000000000000 ) ) ;
#302 = CIRCLE ( 'NONE', #272, 4.000000000000000000 ) ;
#303 = PERSON_AND_ORGANIZATION ( #47, #266 ) ;
#304 =( NAMED_UNIT ( * ) PLANE_ANGLE_UNIT ( ) SI_UNIT ( $, .RADIAN. ) );
#305 = EDGE_CURVE ( 'NONE', #172, #289, #217, .T. ) ;
#306 = CLOSED_SHELL ( 'NONE', ( #218, #279, #157, #71, #263, #147, #160, #244, #45 ) ) ;
#307 = AXIS2_PLACEMENT_3D ( 'NONE', #138, #254, #93 ) ;
ENDSEC;
END-ISO-10303-21;
