ISO-10303-21;
HEADER;
FILE_DESCRIPTION (( 'STEP AP203' ),
    '1' );
FILE_NAME ('d35e.STEP',
    '2022-06-20T09:27:45',
    ( '' ),
    ( '' ),
    'SwSTEP 2.0',
    'SolidWorks 2019',
    '' );
FILE_SCHEMA (( 'CONFIG_CONTROL_DESIGN' ));
ENDSEC;

DATA;
#1 = CARTESIAN_POINT ( 'NONE',  ( 9.000000000000000000, 1.102182119232617714E-15, 7.000000000000000000 ) ) ;
#2 = MANIFOLD_SOLID_BREP ( 'Zaoblit1', #182 ) ;
#3 = CC_DESIGN_DATE_AND_TIME_ASSIGNMENT ( #85, #81, ( #175 ) ) ;
#4 = CARTESIAN_POINT ( 'NONE',  ( 6.450000000000000178, 0.000000000000000000, 6.999999999999992006 ) ) ;
#5 = ORIENTED_EDGE ( 'NONE', *, *, #296, .F. ) ;
#6 = CALENDAR_DATE ( 2022, 20, 6 ) ;
#7 = ORIENTED_EDGE ( 'NONE', *, *, #67, .F. ) ;
#8 = CALENDAR_DATE ( 2022, 20, 6 ) ;
#9 = ORIENTED_EDGE ( 'NONE', *, *, #256, .F. ) ;
#10 = LOCAL_TIME ( 11, 27, 45.00000000000000000, #88 ) ;
#11 = CALENDAR_DATE ( 2022, 20, 6 ) ;
#12 = ORIENTED_EDGE ( 'NONE', *, *, #189, .F. ) ;
#13 = ADVANCED_FACE ( 'NONE', ( #99 ), #160, .T. ) ;
#14 = APPROVAL ( #55, 'NEURÈENÝ' ) ;
#15 = AXIS2_PLACEMENT_3D ( 'NONE', #230, #69, #252 ) ;
#16 = FACE_OUTER_BOUND ( 'NONE', #171, .T. ) ;
#17 = CARTESIAN_POINT ( 'NONE',  ( 9.000000000000000000, 1.102182119232617714E-15, 7.000000000000000000 ) ) ;
#18 = ORIENTED_EDGE ( 'NONE', *, *, #211, .T. ) ;
#19 = DIRECTION ( 'NONE',  ( 1.000000000000000000, 0.000000000000000000, 0.000000000000000000 ) ) ;
#20 = CC_DESIGN_PERSON_AND_ORGANIZATION_ASSIGNMENT ( #26, #223, ( #92 ) ) ;
#21 = ADVANCED_FACE ( 'NONE', ( #16 ), #274, .T. ) ;
#22 = FACE_OUTER_BOUND ( 'NONE', #299, .T. ) ;
#23 = AXIS2_PLACEMENT_3D ( 'NONE', #49, #104, #236 ) ;
#24 = CARTESIAN_POINT ( 'NONE',  ( 0.000000000000000000, 0.000000000000000000, 7.000000000000000000 ) ) ;
#25 = AXIS2_PLACEMENT_3D ( 'NONE', #120, #207, #141 ) ;
#26 = PERSON_AND_ORGANIZATION ( #259, #87 ) ;
#27 = ORIENTED_EDGE ( 'NONE', *, *, #211, .F. ) ;
#28 = AXIS2_PLACEMENT_3D ( 'NONE', #24, #210, #213 ) ;
#29 = SECURITY_CLASSIFICATION_LEVEL ( 'unclassified' ) ;
#30 = ORIENTED_EDGE ( 'NONE', *, *, #270, .T. ) ;
#31 = APPROVAL_ROLE ( '' ) ;
#32 = EDGE_CURVE ( 'NONE', #200, #35, #221, .T. ) ;
#33 = ORIENTED_EDGE ( 'NONE', *, *, #57, .T. ) ;
#34 = CIRCLE ( 'NONE', #28, 6.450000000000000178 ) ;
#35 = VERTEX_POINT ( 'NONE', #124 ) ;
#36 = DIRECTION ( 'NONE',  ( 1.224646799147353207E-16, 1.000000000000000000, -0.000000000000000000 ) ) ;
#37 = EDGE_CURVE ( 'NONE', #290, #200, #154, .T. ) ;
#38 = AXIS2_PLACEMENT_3D ( 'NONE', #143, #36, #138 ) ;
#39 = DIRECTION ( 'NONE',  ( 0.000000000000000000, 0.000000000000000000, 1.000000000000000000 ) ) ;
#40 =( GEOMETRIC_REPRESENTATION_CONTEXT ( 3 ) GLOBAL_UNCERTAINTY_ASSIGNED_CONTEXT ( ( #94 ) ) GLOBAL_UNIT_ASSIGNED_CONTEXT ( ( #234, #126, #102 ) ) REPRESENTATION_CONTEXT ( 'NONE', 'WORKASPACE' ) );
#41 = CARTESIAN_POINT ( 'NONE',  ( 0.000000000000000000, 0.000000000000000000, 7.199999999999984190 ) ) ;
#42 = DIRECTION ( 'NONE',  ( 1.000000000000000000, 0.000000000000000000, 0.000000000000000000 ) ) ;
#43 = CARTESIAN_POINT ( 'NONE',  ( -6.250000000000000000, 0.000000000000000000, 807.0000000000000000 ) ) ;
#44 = CC_DESIGN_APPROVAL ( #75, ( #175 ) ) ;
#45 = DIRECTION ( 'NONE',  ( 0.000000000000000000, 0.000000000000000000, 1.000000000000000000 ) ) ;
#46 = EDGE_CURVE ( 'NONE', #150, #251, #63, .T. ) ;
#47 = APPROVAL ( #176, 'NEURÈENÝ' ) ;
#48 = CARTESIAN_POINT ( 'NONE',  ( 0.000000000000000000, 0.000000000000000000, 7.199999999999984190 ) ) ;
#49 = CARTESIAN_POINT ( 'NONE',  ( 0.000000000000000000, 0.000000000000000000, 7.000000000000000000 ) ) ;
#50 = PLANE ( 'NONE',  #306 ) ;
#51 = CC_DESIGN_APPROVAL ( #47, ( #92 ) ) ;
#52 = EDGE_CURVE ( 'NONE', #200, #290, #231, .T. ) ;
#53 = CARTESIAN_POINT ( 'NONE',  ( 0.000000000000000000, 0.000000000000000000, 0.000000000000000000 ) ) ;
#54 = VERTEX_POINT ( 'NONE', #17 ) ;
#55 = APPROVAL_STATUS ( 'not_yet_approved' ) ;
#56 = CIRCLE ( 'NONE', #233, 9.000000000000000000 ) ;
#57 = EDGE_CURVE ( 'NONE', #251, #150, #119, .T. ) ;
#58 = CC_DESIGN_PERSON_AND_ORGANIZATION_ASSIGNMENT ( #220, #297, ( #237 ) ) ;
#59 = PERSON_AND_ORGANIZATION ( #259, #87 ) ;
#60 = EDGE_CURVE ( 'NONE', #290, #178, #162, .T. ) ;
#61 = SHAPE_DEFINITION_REPRESENTATION ( #107, #97 ) ;
#62 = EDGE_LOOP ( 'NONE', ( #9, #269, #30, #18 ) ) ;
#63 = CIRCLE ( 'NONE', #305, 6.250000000000000000 ) ;
#64 = DATE_TIME_ROLE ( 'classification_date' ) ;
#65 = ORIENTED_EDGE ( 'NONE', *, *, #37, .F. ) ;
#66 = AXIS2_PLACEMENT_3D ( 'NONE', #261, #128, #133 ) ;
#67 = EDGE_CURVE ( 'NONE', #251, #290, #278, .T. ) ;
#68 = ORIENTED_EDGE ( 'NONE', *, *, #46, .T. ) ;
#69 = DIRECTION ( 'NONE',  ( -0.000000000000000000, -0.000000000000000000, -1.000000000000000000 ) ) ;
#70 = CARTESIAN_POINT ( 'NONE',  ( 0.000000000000000000, 0.000000000000000000, 807.0000000000000000 ) ) ;
#71 = AXIS2_PLACEMENT_3D ( 'NONE', #48, #149, #168 ) ;
#72 = CARTESIAN_POINT ( 'NONE',  ( -9.000000000000000000, 0.000000000000000000, 0.000000000000000000 ) ) ;
#73 = FACE_OUTER_BOUND ( 'NONE', #218, .T. ) ;
#74 = CARTESIAN_POINT ( 'NONE',  ( 6.250000000000000000, 7.654042494670957606E-16, 7.199999999999984190 ) ) ;
#75 = APPROVAL ( #170, 'NEURÈENÝ' ) ;
#76 = FACE_OUTER_BOUND ( 'NONE', #177, .T. ) ;
#77 = CARTESIAN_POINT ( 'NONE',  ( -9.000000000000000000, 0.000000000000000000, 7.000000000000000000 ) ) ;
#78 = DIRECTION ( 'NONE',  ( 1.000000000000000000, 0.000000000000000000, 0.000000000000000000 ) ) ;
#79 = EDGE_CURVE ( 'NONE', #178, #35, #281, .T. ) ;
#80 = CIRCLE ( 'NONE', #103, 9.000000000000000000 ) ;
#81 = DATE_TIME_ROLE ( 'creation_date' ) ;
#82 = ORIENTED_EDGE ( 'NONE', *, *, #256, .T. ) ;
#83 = ADVANCED_FACE ( 'NONE', ( #161 ), #279, .T. ) ;
#84 = AXIS2_PLACEMENT_3D ( 'NONE', #253, #142, #181 ) ;
#85 = DATE_AND_TIME ( #11, #227 ) ;
#86 = ORIENTED_EDGE ( 'NONE', *, *, #46, .F. ) ;
#87 = ORGANIZATION ( 'NEURÈENÝ', 'NEURÈENÝ', '' ) ;
#88 = COORDINATED_UNIVERSAL_TIME_OFFSET ( 1, 0, .AHEAD. ) ;
#89 = DESIGN_CONTEXT ( 'detailed design', #229, 'design' ) ;
#90 = ORIENTED_EDGE ( 'NONE', *, *, #37, .T. ) ;
#91 = DIRECTION ( 'NONE',  ( 1.000000000000000000, 0.000000000000000000, 0.000000000000000000 ) ) ;
#92 = SECURITY_CLASSIFICATION ( '', '', #29 ) ;
#93 = CYLINDRICAL_SURFACE ( 'NONE', #121, 9.000000000000000000 ) ;
#94 = UNCERTAINTY_MEASURE_WITH_UNIT (LENGTH_MEASURE( 1.000000000000000082E-05 ), #234, 'distance_accuracy_value', 'NONE');
#95 = ADVANCED_FACE ( 'NONE', ( #73 ), #293, .F. ) ;
#96 = DIRECTION ( 'NONE',  ( -1.000000000000000000, 0.000000000000000000, 0.000000000000000000 ) ) ;
#97 = ADVANCED_BREP_SHAPE_REPRESENTATION ( 'd35e', ( #2, #66 ), #40 ) ;
#98 = AXIS2_PLACEMENT_3D ( 'NONE', #209, #307, #100 ) ;
#99 = FACE_OUTER_BOUND ( 'NONE', #225, .T. ) ;
#100 = DIRECTION ( 'NONE',  ( 1.000000000000000000, 0.000000000000000000, 0.000000000000000000 ) ) ;
#101 = DIRECTION ( 'NONE',  ( 0.000000000000000000, 0.000000000000000000, 1.000000000000000000 ) ) ;
#102 =( NAMED_UNIT ( * ) SI_UNIT ( $, .STERADIAN. ) SOLID_ANGLE_UNIT ( ) );
#103 = AXIS2_PLACEMENT_3D ( 'NONE', #280, #191, #190 ) ;
#104 = DIRECTION ( 'NONE',  ( 0.000000000000000000, 0.000000000000000000, 1.000000000000000000 ) ) ;
#105 = CARTESIAN_POINT ( 'NONE',  ( -6.250000000000000000, 0.000000000000000000, 7.199999999999984190 ) ) ;
#106 = ADVANCED_FACE ( 'NONE', ( #180 ), #93, .T. ) ;
#107 = PRODUCT_DEFINITION_SHAPE ( 'NONE', 'NONE',  #175 ) ;
#108 = CARTESIAN_POINT ( 'NONE',  ( 0.000000000000000000, 0.000000000000000000, 7.000000000000000000 ) ) ;
#109 = CC_DESIGN_APPROVAL ( #14, ( #277 ) ) ;
#110 = MECHANICAL_CONTEXT ( 'NONE', #187, 'mechanical' ) ;
#111 = ORIENTED_EDGE ( 'NONE', *, *, #189, .T. ) ;
#112 = APPROVAL_DATE_TIME ( #268, #47 ) ;
#113 = ORIENTED_EDGE ( 'NONE', *, *, #52, .T. ) ;
#114 = COORDINATED_UNIVERSAL_TIME_OFFSET ( 1, 0, .AHEAD. ) ;
#115 = VERTEX_POINT ( 'NONE', #72 ) ;
#116 = TOROIDAL_SURFACE ( 'NONE', #71, 6.450000000000000178, 0.2000000000000000111 ) ;
#117 = PERSON_AND_ORGANIZATION_ROLE ( 'creator' ) ;
#118 = CARTESIAN_POINT ( 'NONE',  ( 0.000000000000000000, 0.000000000000000000, 7.000000000000000000 ) ) ;
#119 = CIRCLE ( 'NONE', #298, 6.250000000000000000 ) ;
#120 = CARTESIAN_POINT ( 'NONE',  ( 6.450000000000000178, 0.000000000000000000, 7.199999999999984190 ) ) ;
#121 = AXIS2_PLACEMENT_3D ( 'NONE', #123, #157, #208 ) ;
#122 = CARTESIAN_POINT ( 'NONE',  ( 0.000000000000000000, 0.000000000000000000, 7.199999999999984190 ) ) ;
#123 = CARTESIAN_POINT ( 'NONE',  ( 0.000000000000000000, 0.000000000000000000, 7.000000000000000000 ) ) ;
#124 = CARTESIAN_POINT ( 'NONE',  ( -6.450000000000000178, 7.898971854500428692E-16, 6.999999999999992006 ) ) ;
#125 = PLANE ( 'NONE',  #205 ) ;
#126 =( NAMED_UNIT ( * ) PLANE_ANGLE_UNIT ( ) SI_UNIT ( $, .RADIAN. ) );
#127 = DIRECTION ( 'NONE',  ( 0.000000000000000000, 0.000000000000000000, 1.000000000000000000 ) ) ;
#128 = DIRECTION ( 'NONE',  ( 0.000000000000000000, 0.000000000000000000, 1.000000000000000000 ) ) ;
#129 = AXIS2_PLACEMENT_3D ( 'NONE', #183, #158, #250 ) ;
#130 = LOCAL_TIME ( 11, 27, 45.00000000000000000, #214 ) ;
#131 = VECTOR ( 'NONE', #144, 1000.000000000000000 ) ;
#132 = DATE_AND_TIME ( #197, #10 ) ;
#133 = DIRECTION ( 'NONE',  ( 1.000000000000000000, 0.000000000000000000, 0.000000000000000000 ) ) ;
#134 = ORIENTED_EDGE ( 'NONE', *, *, #32, .F. ) ;
#135 = COORDINATED_UNIVERSAL_TIME_OFFSET ( 1, 0, .AHEAD. ) ;
#136 = ORIENTED_EDGE ( 'NONE', *, *, #32, .T. ) ;
#137 = ORIENTED_EDGE ( 'NONE', *, *, #57, .F. ) ;
#138 = DIRECTION ( 'NONE',  ( -1.000000000000000000, 1.224646799147353454E-16, 0.000000000000000000 ) ) ;
#139 = EDGE_CURVE ( 'NONE', #150, #200, #304, .T. ) ;
#140 = CC_DESIGN_PERSON_AND_ORGANIZATION_ASSIGNMENT ( #151, #245, ( #175 ) ) ;
#141 = DIRECTION ( 'NONE',  ( 0.000000000000000000, 0.000000000000000000, -1.000000000000000000 ) ) ;
#142 = DIRECTION ( 'NONE',  ( -0.000000000000000000, -0.000000000000000000, -1.000000000000000000 ) ) ;
#143 = CARTESIAN_POINT ( 'NONE',  ( -6.450000000000000178, 7.898971854500428692E-16, 7.199999999999984190 ) ) ;
#144 = DIRECTION ( 'NONE',  ( -0.000000000000000000, -0.000000000000000000, -1.000000000000000000 ) ) ;
#145 = CARTESIAN_POINT ( 'NONE',  ( 0.000000000000000000, 0.000000000000000000, 0.000000000000000000 ) ) ;
#146 = FACE_OUTER_BOUND ( 'NONE', #244, .T. ) ;
#147 = APPROVAL_PERSON_ORGANIZATION ( #289, #14, #31 ) ;
#148 = DIRECTION ( 'NONE',  ( 1.000000000000000000, 0.000000000000000000, -0.000000000000000000 ) ) ;
#149 = DIRECTION ( 'NONE',  ( 0.000000000000000000, 0.000000000000000000, 1.000000000000000000 ) ) ;
#150 = VERTEX_POINT ( 'NONE', #232 ) ;
#151 = PERSON_AND_ORGANIZATION ( #259, #87 ) ;
#152 = EDGE_LOOP ( 'NONE', ( #12, #82, #295, #292 ) ) ;
#153 = PERSON_AND_ORGANIZATION ( #259, #87 ) ;
#154 = CIRCLE ( 'NONE', #98, 6.250000000000000000 ) ;
#155 = ORIENTED_EDGE ( 'NONE', *, *, #79, .T. ) ;
#156 = DIRECTION ( 'NONE',  ( 0.000000000000000000, 0.000000000000000000, 1.000000000000000000 ) ) ;
#157 = DIRECTION ( 'NONE',  ( -0.000000000000000000, -0.000000000000000000, -1.000000000000000000 ) ) ;
#158 = DIRECTION ( 'NONE',  ( -0.000000000000000000, -0.000000000000000000, -1.000000000000000000 ) ) ;
#159 = AXIS2_PLACEMENT_3D ( 'NONE', #118, #204, #91 ) ;
#160 = CYLINDRICAL_SURFACE ( 'NONE', #84, 6.250000000000000000 ) ;
#161 = FACE_OUTER_BOUND ( 'NONE', #62, .T. ) ;
#162 = CIRCLE ( 'NONE', #25, 0.1999999999999996503 ) ;
#163 = DIRECTION ( 'NONE',  ( -0.000000000000000000, -0.000000000000000000, -1.000000000000000000 ) ) ;
#164 = APPROVAL_PERSON_ORGANIZATION ( #246, #47, #267 ) ;
#165 = DIRECTION ( 'NONE',  ( 1.000000000000000000, 0.000000000000000000, 0.000000000000000000 ) ) ;
#166 = EDGE_CURVE ( 'NONE', #265, #54, #202, .T. ) ;
#167 = PLANE ( 'NONE',  #23 ) ;
#168 = DIRECTION ( 'NONE',  ( 1.000000000000000000, 0.000000000000000000, 0.000000000000000000 ) ) ;
#169 = ORIENTED_EDGE ( 'NONE', *, *, #52, .F. ) ;
#170 = APPROVAL_STATUS ( 'not_yet_approved' ) ;
#171 = EDGE_LOOP ( 'NONE', ( #7, #86, #203, #113 ) ) ;
#172 = AXIS2_PLACEMENT_3D ( 'NONE', #302, #303, #96 ) ;
#173 = PERSON_AND_ORGANIZATION ( #259, #87 ) ;
#174 = ORIENTED_EDGE ( 'NONE', *, *, #67, .T. ) ;
#175 = PRODUCT_DEFINITION ( 'NEZNÁMÝ', '', #277, #89 ) ;
#176 = APPROVAL_STATUS ( 'not_yet_approved' ) ;
#177 = EDGE_LOOP ( 'NONE', ( #222, #111 ) ) ;
#178 = VERTEX_POINT ( 'NONE', #4 ) ;
#179 = DIRECTION ( 'NONE',  ( 1.000000000000000000, 0.000000000000000000, 0.000000000000000000 ) ) ;
#180 = FACE_OUTER_BOUND ( 'NONE', #152, .T. ) ;
#181 = DIRECTION ( 'NONE',  ( -1.000000000000000000, 0.000000000000000000, 0.000000000000000000 ) ) ;
#182 = CLOSED_SHELL ( 'NONE', ( #301, #13, #106, #83, #185, #219, #21, #194, #95 ) ) ;
#183 = CARTESIAN_POINT ( 'NONE',  ( 0.000000000000000000, 0.000000000000000000, 807.0000000000000000 ) ) ;
#184 = LOCAL_TIME ( 11, 27, 45.00000000000000000, #217 ) ;
#185 = ADVANCED_FACE ( 'NONE', ( #282, #76 ), #167, .T. ) ;
#186 = CARTESIAN_POINT ( 'NONE',  ( 0.000000000000000000, 0.000000000000000000, 807.0000000000000000 ) ) ;
#187 = APPLICATION_CONTEXT ( 'configuration controlled 3d designs of mechanical parts and assemblies' ) ;
#188 = DIRECTION ( 'NONE',  ( 1.000000000000000000, 0.000000000000000000, -0.000000000000000000 ) ) ;
#189 = EDGE_CURVE ( 'NONE', #54, #265, #215, .T. ) ;
#190 = DIRECTION ( 'NONE',  ( 1.000000000000000000, 0.000000000000000000, 0.000000000000000000 ) ) ;
#191 = DIRECTION ( 'NONE',  ( 0.000000000000000000, 0.000000000000000000, 1.000000000000000000 ) ) ;
#192 = DIRECTION ( 'NONE',  ( 0.000000000000000000, 0.000000000000000000, 1.000000000000000000 ) ) ;
#193 = CARTESIAN_POINT ( 'NONE',  ( 9.000000000000000000, 1.102182119232617714E-15, 0.000000000000000000 ) ) ;
#194 = ADVANCED_FACE ( 'NONE', ( #262 ), #50, .T. ) ;
#195 = APPROVAL_DATE_TIME ( #291, #14 ) ;
#196 = ORIENTED_EDGE ( 'NONE', *, *, #79, .F. ) ;
#197 = CALENDAR_DATE ( 2022, 20, 6 ) ;
#198 = ORIENTED_EDGE ( 'NONE', *, *, #248, .F. ) ;
#199 = APPROVAL_ROLE ( '' ) ;
#200 = VERTEX_POINT ( 'NONE', #105 ) ;
#201 = PRODUCT_RELATED_PRODUCT_CATEGORY ( 'detail', '', ( #237 ) ) ;
#202 = CIRCLE ( 'NONE', #159, 9.000000000000000000 ) ;
#203 = ORIENTED_EDGE ( 'NONE', *, *, #139, .T. ) ;
#204 = DIRECTION ( 'NONE',  ( 0.000000000000000000, 0.000000000000000000, 1.000000000000000000 ) ) ;
#205 = AXIS2_PLACEMENT_3D ( 'NONE', #53, #127, #148 ) ;
#206 = CARTESIAN_POINT ( 'NONE',  ( 6.250000000000000000, 7.654042494670957606E-16, 807.0000000000000000 ) ) ;
#207 = DIRECTION ( 'NONE',  ( 0.000000000000000000, -1.000000000000000000, 0.000000000000000000 ) ) ;
#208 = DIRECTION ( 'NONE',  ( -1.000000000000000000, 0.000000000000000000, 0.000000000000000000 ) ) ;
#209 = CARTESIAN_POINT ( 'NONE',  ( 0.000000000000000000, 0.000000000000000000, 7.199999999999984190 ) ) ;
#210 = DIRECTION ( 'NONE',  ( -0.000000000000000000, -0.000000000000000000, -1.000000000000000000 ) ) ;
#211 = EDGE_CURVE ( 'NONE', #115, #247, #80, .T. ) ;
#212 = CC_DESIGN_PERSON_AND_ORGANIZATION_ASSIGNMENT ( #173, #294, ( #277 ) ) ;
#213 = DIRECTION ( 'NONE',  ( 1.000000000000000000, 0.000000000000000000, 0.000000000000000000 ) ) ;
#214 = COORDINATED_UNIVERSAL_TIME_OFFSET ( 1, 0, .AHEAD. ) ;
#215 = CIRCLE ( 'NONE', #283, 9.000000000000000000 ) ;
#216 = EDGE_LOOP ( 'NONE', ( #68, #33 ) ) ;
#217 = COORDINATED_UNIVERSAL_TIME_OFFSET ( 1, 0, .AHEAD. ) ;
#218 = EDGE_LOOP ( 'NONE', ( #134, #65, #288, #5 ) ) ;
#219 = ADVANCED_FACE ( 'NONE', ( #22 ), #125, .F. ) ;
#220 = PERSON_AND_ORGANIZATION ( #259, #87 ) ;
#221 = CIRCLE ( 'NONE', #38, 0.1999999999999996503 ) ;
#222 = ORIENTED_EDGE ( 'NONE', *, *, #166, .T. ) ;
#223 = PERSON_AND_ORGANIZATION_ROLE ( 'classification_officer' ) ;
#224 = ORIENTED_EDGE ( 'NONE', *, *, #296, .T. ) ;
#225 = EDGE_LOOP ( 'NONE', ( #137, #174, #90, #272 ) ) ;
#226 = DIRECTION ( 'NONE',  ( 0.000000000000000000, 0.000000000000000000, 1.000000000000000000 ) ) ;
#227 = LOCAL_TIME ( 11, 27, 45.00000000000000000, #114 ) ;
#228 = DIRECTION ( 'NONE',  ( -0.000000000000000000, -0.000000000000000000, -1.000000000000000000 ) ) ;
#229 = APPLICATION_CONTEXT ( 'configuration controlled 3d designs of mechanical parts and assemblies' ) ;
#230 = CARTESIAN_POINT ( 'NONE',  ( 0.000000000000000000, 0.000000000000000000, 7.000000000000000000 ) ) ;
#231 = CIRCLE ( 'NONE', #255, 6.250000000000000000 ) ;
#232 = CARTESIAN_POINT ( 'NONE',  ( -6.250000000000000000, 0.000000000000000000, 807.0000000000000000 ) ) ;
#233 = AXIS2_PLACEMENT_3D ( 'NONE', #145, #192, #165 ) ;
#234 =( LENGTH_UNIT ( ) NAMED_UNIT ( * ) SI_UNIT ( .MILLI., .METRE. ) );
#235 = DIRECTION ( 'NONE',  ( -0.000000000000000000, -0.000000000000000000, -1.000000000000000000 ) ) ;
#236 = DIRECTION ( 'NONE',  ( 1.000000000000000000, 0.000000000000000000, -0.000000000000000000 ) ) ;
#237 = PRODUCT ( 'd35e', 'd35e', '', ( #110 ) ) ;
#238 = APPROVAL_PERSON_ORGANIZATION ( #59, #75, #199 ) ;
#239 = LINE ( 'NONE', #1, #266 ) ;
#240 = VECTOR ( 'NONE', #228, 1000.000000000000000 ) ;
#241 = APPROVAL_DATE_TIME ( #243, #75 ) ;
#242 = ORIENTED_EDGE ( 'NONE', *, *, #60, .F. ) ;
#243 = DATE_AND_TIME ( #264, #273 ) ;
#244 = EDGE_LOOP ( 'NONE', ( #169, #136, #196, #242 ) ) ;
#245 = PERSON_AND_ORGANIZATION_ROLE ( 'creator' ) ;
#246 = PERSON_AND_ORGANIZATION ( #259, #87 ) ;
#247 = VERTEX_POINT ( 'NONE', #193 ) ;
#248 = EDGE_CURVE ( 'NONE', #247, #115, #56, .T. ) ;
#249 = EDGE_LOOP ( 'NONE', ( #155, #224 ) ) ;
#250 = DIRECTION ( 'NONE',  ( -1.000000000000000000, 0.000000000000000000, 0.000000000000000000 ) ) ;
#251 = VERTEX_POINT ( 'NONE', #284 ) ;
#252 = DIRECTION ( 'NONE',  ( 1.000000000000000000, 0.000000000000000000, 0.000000000000000000 ) ) ;
#253 = CARTESIAN_POINT ( 'NONE',  ( 0.000000000000000000, 0.000000000000000000, 807.0000000000000000 ) ) ;
#254 = DIRECTION ( 'NONE',  ( 1.000000000000000000, 0.000000000000000000, 0.000000000000000000 ) ) ;
#255 = AXIS2_PLACEMENT_3D ( 'NONE', #122, #276, #42 ) ;
#256 = EDGE_CURVE ( 'NONE', #54, #247, #239, .T. ) ;
#257 = CARTESIAN_POINT ( 'NONE',  ( 0.000000000000000000, 0.000000000000000000, 807.0000000000000000 ) ) ;
#258 = AXIS2_PLACEMENT_3D ( 'NONE', #41, #156, #254 ) ;
#259 = PERSON ( 'NEURÈENÝ', 'NEURÈENÝ', 'NEURÈENÝ', ('NEURÈENÝ'), ('NEURÈENÝ'), ('NEURÈENÝ') ) ;
#260 = CARTESIAN_POINT ( 'NONE',  ( -9.000000000000000000, 0.000000000000000000, 7.000000000000000000 ) ) ;
#261 = CARTESIAN_POINT ( 'NONE',  ( 0.000000000000000000, 0.000000000000000000, 0.000000000000000000 ) ) ;
#262 = FACE_OUTER_BOUND ( 'NONE', #216, .T. ) ;
#263 = CC_DESIGN_PERSON_AND_ORGANIZATION_ASSIGNMENT ( #153, #117, ( #277 ) ) ;
#264 = CALENDAR_DATE ( 2022, 20, 6 ) ;
#265 = VERTEX_POINT ( 'NONE', #260 ) ;
#266 = VECTOR ( 'NONE', #163, 1000.000000000000000 ) ;
#267 = APPROVAL_ROLE ( '' ) ;
#268 = DATE_AND_TIME ( #6, #184 ) ;
#269 = ORIENTED_EDGE ( 'NONE', *, *, #166, .F. ) ;
#270 = EDGE_CURVE ( 'NONE', #265, #115, #285, .T. ) ;
#271 = APPLICATION_PROTOCOL_DEFINITION ( 'international standard', 'config_control_design', 1994, #229 ) ;
#272 = ORIENTED_EDGE ( 'NONE', *, *, #139, .F. ) ;
#273 = LOCAL_TIME ( 11, 27, 45.00000000000000000, #135 ) ;
#274 = CYLINDRICAL_SURFACE ( 'NONE', #129, 6.250000000000000000 ) ;
#275 = CC_DESIGN_DATE_AND_TIME_ASSIGNMENT ( #132, #64, ( #92 ) ) ;
#276 = DIRECTION ( 'NONE',  ( 0.000000000000000000, 0.000000000000000000, 1.000000000000000000 ) ) ;
#277 = PRODUCT_DEFINITION_FORMATION_WITH_SPECIFIED_SOURCE ( 'LIBOVOLNÝ', '', #237, .NOT_KNOWN. ) ;
#278 = LINE ( 'NONE', #206, #240 ) ;
#279 = CYLINDRICAL_SURFACE ( 'NONE', #172, 9.000000000000000000 ) ;
#280 = CARTESIAN_POINT ( 'NONE',  ( 0.000000000000000000, 0.000000000000000000, 0.000000000000000000 ) ) ;
#281 = CIRCLE ( 'NONE', #15, 6.450000000000000178 ) ;
#282 = FACE_BOUND ( 'NONE', #249, .T. ) ;
#283 = AXIS2_PLACEMENT_3D ( 'NONE', #108, #101, #78 ) ;
#284 = CARTESIAN_POINT ( 'NONE',  ( 6.250000000000000000, 7.654042494670957606E-16, 807.0000000000000000 ) ) ;
#285 = LINE ( 'NONE', #77, #287 ) ;
#286 = APPLICATION_PROTOCOL_DEFINITION ( 'international standard', 'config_control_design', 1994, #187 ) ;
#287 = VECTOR ( 'NONE', #235, 1000.000000000000000 ) ;
#288 = ORIENTED_EDGE ( 'NONE', *, *, #60, .T. ) ;
#289 = PERSON_AND_ORGANIZATION ( #259, #87 ) ;
#290 = VERTEX_POINT ( 'NONE', #74 ) ;
#291 = DATE_AND_TIME ( #8, #130 ) ;
#292 = ORIENTED_EDGE ( 'NONE', *, *, #270, .F. ) ;
#293 = TOROIDAL_SURFACE ( 'NONE', #258, 6.450000000000000178, 0.2000000000000000111 ) ;
#294 = PERSON_AND_ORGANIZATION_ROLE ( 'design_supplier' ) ;
#295 = ORIENTED_EDGE ( 'NONE', *, *, #248, .T. ) ;
#296 = EDGE_CURVE ( 'NONE', #35, #178, #34, .T. ) ;
#297 = PERSON_AND_ORGANIZATION_ROLE ( 'design_owner' ) ;
#298 = AXIS2_PLACEMENT_3D ( 'NONE', #70, #226, #179 ) ;
#299 = EDGE_LOOP ( 'NONE', ( #27, #198 ) ) ;
#300 = CC_DESIGN_SECURITY_CLASSIFICATION ( #92, ( #277 ) ) ;
#301 = ADVANCED_FACE ( 'NONE', ( #146 ), #116, .F. ) ;
#302 = CARTESIAN_POINT ( 'NONE',  ( 0.000000000000000000, 0.000000000000000000, 7.000000000000000000 ) ) ;
#303 = DIRECTION ( 'NONE',  ( -0.000000000000000000, -0.000000000000000000, -1.000000000000000000 ) ) ;
#304 = LINE ( 'NONE', #43, #131 ) ;
#305 = AXIS2_PLACEMENT_3D ( 'NONE', #186, #39, #19 ) ;
#306 = AXIS2_PLACEMENT_3D ( 'NONE', #257, #45, #188 ) ;
#307 = DIRECTION ( 'NONE',  ( 0.000000000000000000, 0.000000000000000000, 1.000000000000000000 ) ) ;
ENDSEC;
END-ISO-10303-21;
