ISO-10303-21;
HEADER;
FILE_DESCRIPTION (( 'STEP AP203' ),
    '1' );
FILE_NAME ('bc6d.STEP',
    '2022-06-20T09:20:25',
    ( '' ),
    ( '' ),
    'SwSTEP 2.0',
    'SolidWorks 2019',
    '' );
FILE_SCHEMA (( 'CONFIG_CONTROL_DESIGN' ));
ENDSEC;

DATA;
#1 = EDGE_LOOP ( 'NONE', ( #304, #169 ) ) ;
#2 = CARTESIAN_POINT ( 'NONE',  ( -10.00000000000000000, 0.000000000000000000, 208.0000000000000284 ) ) ;
#3 = DIRECTION ( 'NONE',  ( 0.000000000000000000, 0.000000000000000000, 1.000000000000000000 ) ) ;
#4 = EDGE_CURVE ( 'NONE', #111, #233, #103, .T. ) ;
#5 = CARTESIAN_POINT ( 'NONE',  ( 10.00000000000000000, 1.224646799147353256E-15, 208.0000000000000284 ) ) ;
#6 = CARTESIAN_POINT ( 'NONE',  ( 10.00000000000000000, 1.224646799147353256E-15, 8.200000000000013500 ) ) ;
#7 = VECTOR ( 'NONE', #165, 1000.000000000000000 ) ;
#8 = PRODUCT_DEFINITION_FORMATION_WITH_SPECIFIED_SOURCE ( 'LIBOVOLNÝ', '', #196, .NOT_KNOWN. ) ;
#9 = CC_DESIGN_DATE_AND_TIME_ASSIGNMENT ( #201, #204, ( #268 ) ) ;
#10 = SECURITY_CLASSIFICATION_LEVEL ( 'unclassified' ) ;
#11 = VECTOR ( 'NONE', #25, 1000.000000000000000 ) ;
#12 = MECHANICAL_CONTEXT ( 'NONE', #138, 'mechanical' ) ;
#13 = PERSON_AND_ORGANIZATION ( #95, #137 ) ;
#14 = VECTOR ( 'NONE', #23, 1000.000000000000000 ) ;
#15 = CC_DESIGN_APPROVAL ( #79, ( #305 ) ) ;
#16 = ORIENTED_EDGE ( 'NONE', *, *, #216, .F. ) ;
#17 = ADVANCED_FACE ( 'NONE', ( #279 ), #232, .F. ) ;
#18 = ORIENTED_EDGE ( 'NONE', *, *, #252, .F. ) ;
#19 = ORIENTED_EDGE ( 'NONE', *, *, #112, .T. ) ;
#20 = ADVANCED_FACE ( 'NONE', ( #306 ), #132, .T. ) ;
#21 = AXIS2_PLACEMENT_3D ( 'NONE', #144, #237, #188 ) ;
#22 = CARTESIAN_POINT ( 'NONE',  ( 0.000000000000000000, 0.000000000000000000, 0.000000000000000000 ) ) ;
#23 = DIRECTION ( 'NONE',  ( -0.000000000000000000, -0.000000000000000000, -1.000000000000000000 ) ) ;
#24 = CIRCLE ( 'NONE', #215, 10.20000000000000107 ) ;
#25 = DIRECTION ( 'NONE',  ( -0.000000000000000000, -0.000000000000000000, -1.000000000000000000 ) ) ;
#26 = CARTESIAN_POINT ( 'NONE',  ( 13.00000000000000178, 1.592040838891559293E-15, 8.000000000000000000 ) ) ;
#27 = DIRECTION ( 'NONE',  ( 0.000000000000000000, 0.000000000000000000, -1.000000000000000000 ) ) ;
#28 = EDGE_CURVE ( 'NONE', #205, #254, #24, .T. ) ;
#29 = CARTESIAN_POINT ( 'NONE',  ( 0.000000000000000000, 0.000000000000000000, 8.200000000000013500 ) ) ;
#30 = AXIS2_PLACEMENT_3D ( 'NONE', #240, #88, #69 ) ;
#31 = DATE_AND_TIME ( #241, #189 ) ;
#32 = PERSON_AND_ORGANIZATION ( #95, #137 ) ;
#33 = FACE_OUTER_BOUND ( 'NONE', #66, .T. ) ;
#34 = CIRCLE ( 'NONE', #288, 0.2000000000000005107 ) ;
#35 = VERTEX_POINT ( 'NONE', #37 ) ;
#36 = ORIENTED_EDGE ( 'NONE', *, *, #93, .T. ) ;
#37 = CARTESIAN_POINT ( 'NONE',  ( -10.00000000000000000, 0.000000000000000000, 8.200000000000013500 ) ) ;
#38 = EDGE_LOOP ( 'NONE', ( #256, #135 ) ) ;
#39 = ORIENTED_EDGE ( 'NONE', *, *, #161, .T. ) ;
#40 = LOCAL_TIME ( 11, 20, 25.00000000000000000, #272 ) ;
#41 = EDGE_LOOP ( 'NONE', ( #16, #140, #19, #276 ) ) ;
#42 = DIRECTION ( 'NONE',  ( 1.000000000000000000, 0.000000000000000000, 0.000000000000000000 ) ) ;
#43 = ORIENTED_EDGE ( 'NONE', *, *, #252, .T. ) ;
#44 = PLANE ( 'NONE',  #206 ) ;
#45 = CARTESIAN_POINT ( 'NONE',  ( 0.000000000000000000, 0.000000000000000000, 8.000000000000000000 ) ) ;
#46 = DIRECTION ( 'NONE',  ( 0.000000000000000000, 0.000000000000000000, 1.000000000000000000 ) ) ;
#47 = CC_DESIGN_PERSON_AND_ORGANIZATION_ASSIGNMENT ( #124, #248, ( #196 ) ) ;
#48 = DIRECTION ( 'NONE',  ( 0.000000000000000000, -1.000000000000000000, 0.000000000000000000 ) ) ;
#49 = APPROVAL_ROLE ( '' ) ;
#50 = CC_DESIGN_APPROVAL ( #125, ( #8 ) ) ;
#51 = CARTESIAN_POINT ( 'NONE',  ( 0.000000000000000000, 0.000000000000000000, 8.200000000000013500 ) ) ;
#52 = DATE_AND_TIME ( #100, #257 ) ;
#53 =( NAMED_UNIT ( * ) SI_UNIT ( $, .STERADIAN. ) SOLID_ANGLE_UNIT ( ) );
#54 = APPROVAL_STATUS ( 'not_yet_approved' ) ;
#55 = CC_DESIGN_PERSON_AND_ORGANIZATION_ASSIGNMENT ( #13, #101, ( #268 ) ) ;
#56 = CALENDAR_DATE ( 2022, 20, 6 ) ;
#57 = ORIENTED_EDGE ( 'NONE', *, *, #60, .F. ) ;
#58 = ORIENTED_EDGE ( 'NONE', *, *, #150, .T. ) ;
#59 = APPROVAL_PERSON_ORGANIZATION ( #178, #79, #78 ) ;
#60 = EDGE_CURVE ( 'NONE', #86, #233, #300, .T. ) ;
#61 = DIRECTION ( 'NONE',  ( 0.000000000000000000, 0.000000000000000000, 1.000000000000000000 ) ) ;
#62 = CARTESIAN_POINT ( 'NONE',  ( 0.000000000000000000, 0.000000000000000000, 0.000000000000000000 ) ) ;
#63 = CARTESIAN_POINT ( 'NONE',  ( 0.000000000000000000, 0.000000000000000000, 8.000000000000000000 ) ) ;
#64 = CIRCLE ( 'NONE', #85, 13.00000000000000178 ) ;
#65 = DIRECTION ( 'NONE',  ( 1.000000000000000000, 0.000000000000000000, 0.000000000000000000 ) ) ;
#66 = EDGE_LOOP ( 'NONE', ( #117, #235, #68, #180 ) ) ;
#67 = CARTESIAN_POINT ( 'NONE',  ( 13.00000000000000178, 1.592040838891559293E-15, 0.000000000000000000 ) ) ;
#68 = ORIENTED_EDGE ( 'NONE', *, *, #28, .F. ) ;
#69 = DIRECTION ( 'NONE',  ( -1.000000000000000000, 0.000000000000000000, 0.000000000000000000 ) ) ;
#70 = EDGE_LOOP ( 'NONE', ( #249, #156 ) ) ;
#71 = CYLINDRICAL_SURFACE ( 'NONE', #246, 10.00000000000000000 ) ;
#72 = CIRCLE ( 'NONE', #109, 10.00000000000000000 ) ;
#73 = EDGE_CURVE ( 'NONE', #166, #35, #183, .T. ) ;
#74 = FACE_OUTER_BOUND ( 'NONE', #1, .T. ) ;
#75 = CLOSED_SHELL ( 'NONE', ( #295, #136, #77, #258, #238, #17, #282, #20, #89 ) ) ;
#76 = PERSON_AND_ORGANIZATION_ROLE ( 'creator' ) ;
#77 = ADVANCED_FACE ( 'NONE', ( #158 ), #281, .T. ) ;
#78 = APPROVAL_ROLE ( '' ) ;
#79 = APPROVAL ( #173, 'NEURÈENÝ' ) ;
#80 = CIRCLE ( 'NONE', #263, 13.00000000000000178 ) ;
#81 = ORIENTED_EDGE ( 'NONE', *, *, #73, .F. ) ;
#82 = SHAPE_DEFINITION_REPRESENTATION ( #104, #292 ) ;
#83 = CARTESIAN_POINT ( 'NONE',  ( -13.00000000000000178, 0.000000000000000000, 8.000000000000000000 ) ) ;
#84 = ORIENTED_EDGE ( 'NONE', *, *, #172, .F. ) ;
#85 = AXIS2_PLACEMENT_3D ( 'NONE', #190, #210, #116 ) ;
#86 = VERTEX_POINT ( 'NONE', #163 ) ;
#87 = DIRECTION ( 'NONE',  ( -0.000000000000000000, -0.000000000000000000, -1.000000000000000000 ) ) ;
#88 = DIRECTION ( 'NONE',  ( -0.000000000000000000, -0.000000000000000000, -1.000000000000000000 ) ) ;
#89 = ADVANCED_FACE ( 'NONE', ( #253 ), #160, .F. ) ;
#90 = DIRECTION ( 'NONE',  ( 1.224646799147353207E-16, 1.000000000000000000, -0.000000000000000000 ) ) ;
#91 = EDGE_LOOP ( 'NONE', ( #231, #225, #227, #39 ) ) ;
#92 = DIRECTION ( 'NONE',  ( 1.000000000000000000, 0.000000000000000000, -0.000000000000000000 ) ) ;
#93 = EDGE_CURVE ( 'NONE', #230, #35, #275, .T. ) ;
#94 = DIRECTION ( 'NONE',  ( -1.000000000000000000, 0.000000000000000000, 0.000000000000000000 ) ) ;
#95 = PERSON ( 'NEURÈENÝ', 'NEURÈENÝ', 'NEURÈENÝ', ('NEURÈENÝ'), ('NEURÈENÝ'), ('NEURÈENÝ') ) ;
#96 = DIRECTION ( 'NONE',  ( 0.000000000000000000, 0.000000000000000000, 1.000000000000000000 ) ) ;
#97 = CIRCLE ( 'NONE', #128, 10.20000000000000107 ) ;
#98 = DATE_AND_TIME ( #218, #40 ) ;
#99 = AXIS2_PLACEMENT_3D ( 'NONE', #29, #141, #264 ) ;
#100 = CALENDAR_DATE ( 2022, 20, 6 ) ;
#101 = PERSON_AND_ORGANIZATION_ROLE ( 'classification_officer' ) ;
#102 = EDGE_CURVE ( 'NONE', #209, #111, #283, .T. ) ;
#103 = CIRCLE ( 'NONE', #280, 13.00000000000000178 ) ;
#104 = PRODUCT_DEFINITION_SHAPE ( 'NONE', 'NONE',  #305 ) ;
#105 = COORDINATED_UNIVERSAL_TIME_OFFSET ( 1, 0, .AHEAD. ) ;
#106 = ORIENTED_EDGE ( 'NONE', *, *, #203, .T. ) ;
#107 = DIRECTION ( 'NONE',  ( 1.000000000000000000, 0.000000000000000000, -0.000000000000000000 ) ) ;
#108 = EDGE_LOOP ( 'NONE', ( #285, #106, #36, #81 ) ) ;
#109 = AXIS2_PLACEMENT_3D ( 'NONE', #259, #171, #168 ) ;
#110 = APPROVAL_PERSON_ORGANIZATION ( #151, #125, #49 ) ;
#111 = VERTEX_POINT ( 'NONE', #67 ) ;
#112 = EDGE_CURVE ( 'NONE', #230, #205, #181, .T. ) ;
#113 = DIRECTION ( 'NONE',  ( 1.000000000000000000, 0.000000000000000000, 0.000000000000000000 ) ) ;
#114 = AXIS2_PLACEMENT_3D ( 'NONE', #182, #159, #130 ) ;
#115 = CARTESIAN_POINT ( 'NONE',  ( 0.000000000000000000, 0.000000000000000000, 208.0000000000000284 ) ) ;
#116 = DIRECTION ( 'NONE',  ( 1.000000000000000000, 0.000000000000000000, 0.000000000000000000 ) ) ;
#117 = ORIENTED_EDGE ( 'NONE', *, *, #150, .F. ) ;
#118 = CARTESIAN_POINT ( 'NONE',  ( 10.20000000000000107, 0.000000000000000000, 8.200000000000013500 ) ) ;
#119 = CARTESIAN_POINT ( 'NONE',  ( 0.000000000000000000, 0.000000000000000000, 8.000000000000000000 ) ) ;
#120 = AXIS2_PLACEMENT_3D ( 'NONE', #119, #46, #145 ) ;
#121 = APPLICATION_PROTOCOL_DEFINITION ( 'international standard', 'config_control_design', 1994, #265 ) ;
#122 = AXIS2_PLACEMENT_3D ( 'NONE', #244, #127, #126 ) ;
#123 = AXIS2_PLACEMENT_3D ( 'NONE', #293, #294, #149 ) ;
#124 = PERSON_AND_ORGANIZATION ( #95, #137 ) ;
#125 = APPROVAL ( #54, 'NEURÈENÝ' ) ;
#126 = DIRECTION ( 'NONE',  ( -1.000000000000000000, 0.000000000000000000, 0.000000000000000000 ) ) ;
#127 = DIRECTION ( 'NONE',  ( -0.000000000000000000, -0.000000000000000000, -1.000000000000000000 ) ) ;
#128 = AXIS2_PLACEMENT_3D ( 'NONE', #45, #284, #307 ) ;
#129 = DIRECTION ( 'NONE',  ( 1.000000000000000000, 0.000000000000000000, 0.000000000000000000 ) ) ;
#130 = DIRECTION ( 'NONE',  ( 1.000000000000000000, 0.000000000000000000, -0.000000000000000000 ) ) ;
#131 = PERSON_AND_ORGANIZATION ( #95, #137 ) ;
#132 = PLANE ( 'NONE',  #114 ) ;
#133 = EDGE_CURVE ( 'NONE', #86, #209, #245, .T. ) ;
#134 = DIRECTION ( 'NONE',  ( -1.000000000000000000, 0.000000000000000000, 0.000000000000000000 ) ) ;
#135 = ORIENTED_EDGE ( 'NONE', *, *, #4, .F. ) ;
#136 = ADVANCED_FACE ( 'NONE', ( #143 ), #71, .T. ) ;
#137 = ORGANIZATION ( 'NEURÈENÝ', 'NEURÈENÝ', '' ) ;
#138 = APPLICATION_CONTEXT ( 'configuration controlled 3d designs of mechanical parts and assemblies' ) ;
#139 = ORIENTED_EDGE ( 'NONE', *, *, #4, .T. ) ;
#140 = ORIENTED_EDGE ( 'NONE', *, *, #93, .F. ) ;
#141 = DIRECTION ( 'NONE',  ( 0.000000000000000000, 0.000000000000000000, 1.000000000000000000 ) ) ;
#142 = AXIS2_PLACEMENT_3D ( 'NONE', #146, #287, #208 ) ;
#143 = FACE_OUTER_BOUND ( 'NONE', #108, .T. ) ;
#144 = CARTESIAN_POINT ( 'NONE',  ( 0.000000000000000000, 0.000000000000000000, 208.0000000000000284 ) ) ;
#145 = DIRECTION ( 'NONE',  ( 1.000000000000000000, 0.000000000000000000, 0.000000000000000000 ) ) ;
#146 = CARTESIAN_POINT ( 'NONE',  ( 0.000000000000000000, 0.000000000000000000, 8.200000000000013500 ) ) ;
#147 = APPROVAL ( #229, 'NEURÈENÝ' ) ;
#148 = COORDINATED_UNIVERSAL_TIME_OFFSET ( 1, 0, .AHEAD. ) ;
#149 = DIRECTION ( 'NONE',  ( 1.000000000000000000, 0.000000000000000000, 0.000000000000000000 ) ) ;
#150 = EDGE_CURVE ( 'NONE', #35, #230, #267, .T. ) ;
#151 = PERSON_AND_ORGANIZATION ( #95, #137 ) ;
#152 = LOCAL_TIME ( 11, 20, 25.00000000000000000, #157 ) ;
#153 = PERSON_AND_ORGANIZATION_ROLE ( 'creator' ) ;
#154 = VECTOR ( 'NONE', #87, 1000.000000000000000 ) ;
#155 = EDGE_LOOP ( 'NONE', ( #84, #274, #139, #57 ) ) ;
#156 = ORIENTED_EDGE ( 'NONE', *, *, #184, .T. ) ;
#157 = COORDINATED_UNIVERSAL_TIME_OFFSET ( 1, 0, .AHEAD. ) ;
#158 = FACE_OUTER_BOUND ( 'NONE', #155, .T. ) ;
#159 = DIRECTION ( 'NONE',  ( 0.000000000000000000, 0.000000000000000000, 1.000000000000000000 ) ) ;
#160 = TOROIDAL_SURFACE ( 'NONE', #99, 10.20000000000000107, 0.2000000000000000111 ) ;
#161 = EDGE_CURVE ( 'NONE', #233, #111, #64, .T. ) ;
#162 = APPROVAL_DATE_TIME ( #186, #147 ) ;
#163 = CARTESIAN_POINT ( 'NONE',  ( -13.00000000000000178, 0.000000000000000000, 8.000000000000000000 ) ) ;
#164 = CARTESIAN_POINT ( 'NONE',  ( 10.20000000000000107, 0.000000000000000000, 8.000000000000007105 ) ) ;
#165 = DIRECTION ( 'NONE',  ( -0.000000000000000000, -0.000000000000000000, -1.000000000000000000 ) ) ;
#166 = VERTEX_POINT ( 'NONE', #2 ) ;
#167 = PRODUCT_RELATED_PRODUCT_CATEGORY ( 'detail', '', ( #196 ) ) ;
#168 = DIRECTION ( 'NONE',  ( 1.000000000000000000, 0.000000000000000000, 0.000000000000000000 ) ) ;
#169 = ORIENTED_EDGE ( 'NONE', *, *, #172, .T. ) ;
#170 = DIRECTION ( 'NONE',  ( -1.000000000000000000, 1.224646799147353207E-16, 0.000000000000000000 ) ) ;
#171 = DIRECTION ( 'NONE',  ( 0.000000000000000000, 0.000000000000000000, 1.000000000000000000 ) ) ;
#172 = EDGE_CURVE ( 'NONE', #209, #86, #80, .T. ) ;
#173 = APPROVAL_STATUS ( 'not_yet_approved' ) ;
#174 = DATE_TIME_ROLE ( 'creation_date' ) ;
#175 = LOCAL_TIME ( 11, 20, 25.00000000000000000, #105 ) ;
#176 = AXIS2_PLACEMENT_3D ( 'NONE', #62, #187, #107 ) ;
#177 = APPROVAL_DATE_TIME ( #98, #79 ) ;
#178 = PERSON_AND_ORGANIZATION ( #95, #137 ) ;
#179 =( GEOMETRIC_REPRESENTATION_CONTEXT ( 3 ) GLOBAL_UNCERTAINTY_ASSIGNED_CONTEXT ( ( #297 ) ) GLOBAL_UNIT_ASSIGNED_CONTEXT ( ( #197, #291, #53 ) ) REPRESENTATION_CONTEXT ( 'NONE', 'WORKASPACE' ) );
#180 = ORIENTED_EDGE ( 'NONE', *, *, #112, .F. ) ;
#181 = CIRCLE ( 'NONE', #298, 0.2000000000000005107 ) ;
#182 = CARTESIAN_POINT ( 'NONE',  ( 0.000000000000000000, 0.000000000000000000, 208.0000000000000284 ) ) ;
#183 = LINE ( 'NONE', #278, #154 ) ;
#184 = EDGE_CURVE ( 'NONE', #254, #205, #97, .T. ) ;
#185 = EDGE_LOOP ( 'NONE', ( #250, #18, #207, #58 ) ) ;
#186 = DATE_AND_TIME ( #56, #152 ) ;
#187 = DIRECTION ( 'NONE',  ( 0.000000000000000000, 0.000000000000000000, 1.000000000000000000 ) ) ;
#188 = DIRECTION ( 'NONE',  ( 1.000000000000000000, 0.000000000000000000, 0.000000000000000000 ) ) ;
#189 = LOCAL_TIME ( 11, 20, 25.00000000000000000, #148 ) ;
#190 = CARTESIAN_POINT ( 'NONE',  ( 0.000000000000000000, 0.000000000000000000, 0.000000000000000000 ) ) ;
#191 = CYLINDRICAL_SURFACE ( 'NONE', #30, 13.00000000000000178 ) ;
#192 = CARTESIAN_POINT ( 'NONE',  ( -10.20000000000000107, 1.249139735130300365E-15, 8.200000000000013500 ) ) ;
#193 = CARTESIAN_POINT ( 'NONE',  ( 10.00000000000000000, 1.224646799147353256E-15, 208.0000000000000284 ) ) ;
#194 = AXIS2_PLACEMENT_3D ( 'NONE', #63, #251, #134 ) ;
#195 = FACE_OUTER_BOUND ( 'NONE', #185, .T. ) ;
#196 = PRODUCT ( 'bc6d', 'bc6d', '', ( #12 ) ) ;
#197 =( LENGTH_UNIT ( ) NAMED_UNIT ( * ) SI_UNIT ( .MILLI., .METRE. ) );
#198 = DESIGN_CONTEXT ( 'detailed design', #265, 'design' ) ;
#199 = AXIS2_PLACEMENT_3D ( 'NONE', #51, #223, #129 ) ;
#200 = DIRECTION ( 'NONE',  ( 1.000000000000000000, 0.000000000000000000, 0.000000000000000000 ) ) ;
#201 = DATE_AND_TIME ( #277, #175 ) ;
#202 = DIRECTION ( 'NONE',  ( -0.000000000000000000, -0.000000000000000000, -1.000000000000000000 ) ) ;
#203 = EDGE_CURVE ( 'NONE', #213, #230, #217, .T. ) ;
#204 = DATE_TIME_ROLE ( 'classification_date' ) ;
#205 = VERTEX_POINT ( 'NONE', #164 ) ;
#206 = AXIS2_PLACEMENT_3D ( 'NONE', #212, #3, #92 ) ;
#207 = ORIENTED_EDGE ( 'NONE', *, *, #73, .T. ) ;
#208 = DIRECTION ( 'NONE',  ( 1.000000000000000000, 0.000000000000000000, 0.000000000000000000 ) ) ;
#209 = VERTEX_POINT ( 'NONE', #26 ) ;
#210 = DIRECTION ( 'NONE',  ( 0.000000000000000000, 0.000000000000000000, 1.000000000000000000 ) ) ;
#211 = ORIENTED_EDGE ( 'NONE', *, *, #262, .T. ) ;
#212 = CARTESIAN_POINT ( 'NONE',  ( 0.000000000000000000, 0.000000000000000000, 8.000000000000000000 ) ) ;
#213 = VERTEX_POINT ( 'NONE', #193 ) ;
#214 = CARTESIAN_POINT ( 'NONE',  ( 0.000000000000000000, 0.000000000000000000, 8.000000000000000000 ) ) ;
#215 = AXIS2_PLACEMENT_3D ( 'NONE', #301, #202, #113 ) ;
#216 = EDGE_CURVE ( 'NONE', #35, #254, #34, .T. ) ;
#217 = LINE ( 'NONE', #5, #7 ) ;
#218 = CALENDAR_DATE ( 2022, 20, 6 ) ;
#219 = PERSON_AND_ORGANIZATION_ROLE ( 'design_supplier' ) ;
#220 = CYLINDRICAL_SURFACE ( 'NONE', #122, 10.00000000000000000 ) ;
#221 = AXIS2_PLACEMENT_3D ( 'NONE', #236, #96, #65 ) ;
#222 = APPROVAL_DATE_TIME ( #31, #125 ) ;
#223 = DIRECTION ( 'NONE',  ( 0.000000000000000000, 0.000000000000000000, 1.000000000000000000 ) ) ;
#224 = CC_DESIGN_PERSON_AND_ORGANIZATION_ASSIGNMENT ( #32, #219, ( #8 ) ) ;
#225 = ORIENTED_EDGE ( 'NONE', *, *, #133, .F. ) ;
#226 = CC_DESIGN_SECURITY_CLASSIFICATION ( #268, ( #8 ) ) ;
#227 = ORIENTED_EDGE ( 'NONE', *, *, #60, .T. ) ;
#228 = MANIFOLD_SOLID_BREP ( 'Zaoblit1', #75 ) ;
#229 = APPROVAL_STATUS ( 'not_yet_approved' ) ;
#230 = VERTEX_POINT ( 'NONE', #6 ) ;
#231 = ORIENTED_EDGE ( 'NONE', *, *, #102, .F. ) ;
#232 = PLANE ( 'NONE',  #176 ) ;
#233 = VERTEX_POINT ( 'NONE', #290 ) ;
#234 = CARTESIAN_POINT ( 'NONE',  ( 13.00000000000000178, 1.592040838891559293E-15, 8.000000000000000000 ) ) ;
#235 = ORIENTED_EDGE ( 'NONE', *, *, #216, .T. ) ;
#236 = CARTESIAN_POINT ( 'NONE',  ( 0.000000000000000000, 0.000000000000000000, 8.200000000000013500 ) ) ;
#237 = DIRECTION ( 'NONE',  ( 0.000000000000000000, 0.000000000000000000, 1.000000000000000000 ) ) ;
#238 = ADVANCED_FACE ( 'NONE', ( #260, #74 ), #44, .T. ) ;
#239 = DIRECTION ( 'NONE',  ( -0.000000000000000000, -0.000000000000000000, -1.000000000000000000 ) ) ;
#240 = CARTESIAN_POINT ( 'NONE',  ( 0.000000000000000000, 0.000000000000000000, 8.000000000000000000 ) ) ;
#241 = CALENDAR_DATE ( 2022, 20, 6 ) ;
#242 = PERSON_AND_ORGANIZATION ( #95, #137 ) ;
#243 = CC_DESIGN_PERSON_AND_ORGANIZATION_ASSIGNMENT ( #242, #153, ( #8 ) ) ;
#244 = CARTESIAN_POINT ( 'NONE',  ( 0.000000000000000000, 0.000000000000000000, 208.0000000000000284 ) ) ;
#245 = CIRCLE ( 'NONE', #120, 13.00000000000000178 ) ;
#246 = AXIS2_PLACEMENT_3D ( 'NONE', #115, #239, #94 ) ;
#247 = CC_DESIGN_DATE_AND_TIME_ASSIGNMENT ( #52, #174, ( #305 ) ) ;
#248 = PERSON_AND_ORGANIZATION_ROLE ( 'design_owner' ) ;
#249 = ORIENTED_EDGE ( 'NONE', *, *, #28, .T. ) ;
#250 = ORIENTED_EDGE ( 'NONE', *, *, #203, .F. ) ;
#251 = DIRECTION ( 'NONE',  ( -0.000000000000000000, -0.000000000000000000, -1.000000000000000000 ) ) ;
#252 = EDGE_CURVE ( 'NONE', #166, #213, #72, .T. ) ;
#253 = FACE_OUTER_BOUND ( 'NONE', #41, .T. ) ;
#254 = VERTEX_POINT ( 'NONE', #266 ) ;
#255 = CIRCLE ( 'NONE', #21, 10.00000000000000000 ) ;
#256 = ORIENTED_EDGE ( 'NONE', *, *, #161, .F. ) ;
#257 = LOCAL_TIME ( 11, 20, 25.00000000000000000, #270 ) ;
#258 = ADVANCED_FACE ( 'NONE', ( #286 ), #191, .T. ) ;
#259 = CARTESIAN_POINT ( 'NONE',  ( 0.000000000000000000, 0.000000000000000000, 208.0000000000000284 ) ) ;
#260 = FACE_BOUND ( 'NONE', #70, .T. ) ;
#261 = DIRECTION ( 'NONE',  ( 0.000000000000000000, 0.000000000000000000, 1.000000000000000000 ) ) ;
#262 = EDGE_CURVE ( 'NONE', #213, #166, #255, .T. ) ;
#263 = AXIS2_PLACEMENT_3D ( 'NONE', #214, #261, #42 ) ;
#264 = DIRECTION ( 'NONE',  ( 1.000000000000000000, 0.000000000000000000, 0.000000000000000000 ) ) ;
#265 = APPLICATION_CONTEXT ( 'configuration controlled 3d designs of mechanical parts and assemblies' ) ;
#266 = CARTESIAN_POINT ( 'NONE',  ( -10.20000000000000107, 1.249139735130300365E-15, 8.000000000000007105 ) ) ;
#267 = CIRCLE ( 'NONE', #221, 10.00000000000000000 ) ;
#268 = SECURITY_CLASSIFICATION ( '', '', #10 ) ;
#269 = PERSON_AND_ORGANIZATION ( #95, #137 ) ;
#270 = COORDINATED_UNIVERSAL_TIME_OFFSET ( 1, 0, .AHEAD. ) ;
#271 = TOROIDAL_SURFACE ( 'NONE', #199, 10.20000000000000107, 0.2000000000000000111 ) ;
#272 = COORDINATED_UNIVERSAL_TIME_OFFSET ( 1, 0, .AHEAD. ) ;
#273 = APPROVAL_ROLE ( '' ) ;
#274 = ORIENTED_EDGE ( 'NONE', *, *, #102, .T. ) ;
#275 = CIRCLE ( 'NONE', #142, 10.00000000000000000 ) ;
#276 = ORIENTED_EDGE ( 'NONE', *, *, #184, .F. ) ;
#277 = CALENDAR_DATE ( 2022, 20, 6 ) ;
#278 = CARTESIAN_POINT ( 'NONE',  ( -10.00000000000000000, 0.000000000000000000, 208.0000000000000284 ) ) ;
#279 = FACE_OUTER_BOUND ( 'NONE', #38, .T. ) ;
#280 = AXIS2_PLACEMENT_3D ( 'NONE', #22, #61, #200 ) ;
#281 = CYLINDRICAL_SURFACE ( 'NONE', #194, 13.00000000000000178 ) ;
#282 = ADVANCED_FACE ( 'NONE', ( #195 ), #220, .T. ) ;
#283 = LINE ( 'NONE', #234, #11 ) ;
#284 = DIRECTION ( 'NONE',  ( -0.000000000000000000, -0.000000000000000000, -1.000000000000000000 ) ) ;
#285 = ORIENTED_EDGE ( 'NONE', *, *, #262, .F. ) ;
#286 = FACE_OUTER_BOUND ( 'NONE', #91, .T. ) ;
#287 = DIRECTION ( 'NONE',  ( 0.000000000000000000, 0.000000000000000000, 1.000000000000000000 ) ) ;
#288 = AXIS2_PLACEMENT_3D ( 'NONE', #192, #90, #170 ) ;
#289 = CC_DESIGN_APPROVAL ( #147, ( #268 ) ) ;
#290 = CARTESIAN_POINT ( 'NONE',  ( -13.00000000000000178, 0.000000000000000000, 0.000000000000000000 ) ) ;
#291 =( NAMED_UNIT ( * ) PLANE_ANGLE_UNIT ( ) SI_UNIT ( $, .RADIAN. ) );
#292 = ADVANCED_BREP_SHAPE_REPRESENTATION ( 'bc6d', ( #228, #123 ), #179 ) ;
#293 = CARTESIAN_POINT ( 'NONE',  ( 0.000000000000000000, 0.000000000000000000, 0.000000000000000000 ) ) ;
#294 = DIRECTION ( 'NONE',  ( 0.000000000000000000, 0.000000000000000000, 1.000000000000000000 ) ) ;
#295 = ADVANCED_FACE ( 'NONE', ( #33 ), #271, .F. ) ;
#296 = APPLICATION_PROTOCOL_DEFINITION ( 'international standard', 'config_control_design', 1994, #138 ) ;
#297 = UNCERTAINTY_MEASURE_WITH_UNIT (LENGTH_MEASURE( 1.000000000000000082E-05 ), #197, 'distance_accuracy_value', 'NONE');
#298 = AXIS2_PLACEMENT_3D ( 'NONE', #118, #48, #27 ) ;
#299 = APPROVAL_PERSON_ORGANIZATION ( #131, #147, #273 ) ;
#300 = LINE ( 'NONE', #83, #14 ) ;
#301 = CARTESIAN_POINT ( 'NONE',  ( 0.000000000000000000, 0.000000000000000000, 8.000000000000000000 ) ) ;
#302 = CC_DESIGN_PERSON_AND_ORGANIZATION_ASSIGNMENT ( #269, #76, ( #305 ) ) ;
#303 = EDGE_LOOP ( 'NONE', ( #43, #211 ) ) ;
#304 = ORIENTED_EDGE ( 'NONE', *, *, #133, .T. ) ;
#305 = PRODUCT_DEFINITION ( 'NEZNÁMÝ', '', #8, #198 ) ;
#306 = FACE_OUTER_BOUND ( 'NONE', #303, .T. ) ;
#307 = DIRECTION ( 'NONE',  ( 1.000000000000000000, 0.000000000000000000, 0.000000000000000000 ) ) ;
ENDSEC;
END-ISO-10303-21;
