ISO-10303-21;
HEADER;
FILE_DESCRIPTION (( 'STEP AP203' ),
    '1' );
FILE_NAME ('6c6d.STEP',
    '2022-06-20T09:37:20',
    ( '' ),
    ( '' ),
    'SwSTEP 2.0',
    'SolidWorks 2019',
    '' );
FILE_SCHEMA (( 'CONFIG_CONTROL_DESIGN' ));
ENDSEC;

DATA;
#1 = DIRECTION ( 'NONE',  ( 1.000000000000000000, 0.000000000000000000, -0.000000000000000000 ) ) ;
#2 = AXIS2_PLACEMENT_3D ( 'NONE', #178, #59, #60 ) ;
#3 = DIRECTION ( 'NONE',  ( 0.000000000000000000, 0.000000000000000000, 1.000000000000000000 ) ) ;
#4 = CALENDAR_DATE ( 2022, 20, 6 ) ;
#5 = ORIENTED_EDGE ( 'NONE', *, *, #62, .T. ) ;
#6 = CARTESIAN_POINT ( 'NONE',  ( 0.000000000000000000, 0.000000000000000000, 5.000000000000000000 ) ) ;
#7 = CALENDAR_DATE ( 2022, 20, 6 ) ;
#8 = CARTESIAN_POINT ( 'NONE',  ( 0.000000000000000000, 0.000000000000000000, 5.000000000000000000 ) ) ;
#9 = CYLINDRICAL_SURFACE ( 'NONE', #13, 5.250000000000000888 ) ;
#10 = DIRECTION ( 'NONE',  ( 0.000000000000000000, 0.000000000000000000, 1.000000000000000000 ) ) ;
#11 = EDGE_CURVE ( 'NONE', #44, #139, #45, .T. ) ;
#12 = PLANE ( 'NONE',  #149 ) ;
#13 = AXIS2_PLACEMENT_3D ( 'NONE', #106, #296, #233 ) ;
#14 = LOCAL_TIME ( 11, 37, 20.00000000000000000, #169 ) ;
#15 = CARTESIAN_POINT ( 'NONE',  ( 0.000000000000000000, 0.000000000000000000, 5.200000000000009948 ) ) ;
#16 = DESIGN_CONTEXT ( 'detailed design', #218, 'design' ) ;
#17 = EDGE_LOOP ( 'NONE', ( #170, #270, #46, #43 ) ) ;
#18 = APPROVAL_PERSON_ORGANIZATION ( #265, #162, #120 ) ;
#19 = DIRECTION ( 'NONE',  ( 0.000000000000000000, 0.000000000000000000, 1.000000000000000000 ) ) ;
#20 = ORIENTED_EDGE ( 'NONE', *, *, #115, .F. ) ;
#21 = EDGE_CURVE ( 'NONE', #29, #213, #281, .T. ) ;
#22 = PLANE ( 'NONE',  #266 ) ;
#23 = EDGE_LOOP ( 'NONE', ( #47, #79 ) ) ;
#24 = CARTESIAN_POINT ( 'NONE',  ( 8.000000000000000000, 9.797174393178825657E-16, 0.000000000000000000 ) ) ;
#25 = COORDINATED_UNIVERSAL_TIME_OFFSET ( 1, 0, .AHEAD. ) ;
#26 = AXIS2_PLACEMENT_3D ( 'NONE', #198, #76, #285 ) ;
#27 = MANIFOLD_SOLID_BREP ( 'Zaoblit1', #103 ) ;
#28 = EDGE_LOOP ( 'NONE', ( #288, #240, #67, #116 ) ) ;
#29 = VERTEX_POINT ( 'NONE', #24 ) ;
#30 = APPROVAL_DATE_TIME ( #70, #162 ) ;
#31 = LINE ( 'NONE', #179, #245 ) ;
#32 = APPROVAL ( #102, 'NEURÈENÝ' ) ;
#33 = AXIS2_PLACEMENT_3D ( 'NONE', #255, #107, #105 ) ;
#34 = APPROVAL_PERSON_ORGANIZATION ( #271, #32, #75 ) ;
#35 = DIRECTION ( 'NONE',  ( -0.000000000000000000, -0.000000000000000000, -1.000000000000000000 ) ) ;
#36 = CARTESIAN_POINT ( 'NONE',  ( 0.000000000000000000, 0.000000000000000000, 5.000000000000000000 ) ) ;
#37 = CARTESIAN_POINT ( 'NONE',  ( -5.250000000000000888, 0.000000000000000000, 255.0000000000000000 ) ) ;
#38 = CIRCLE ( 'NONE', #2, 5.250000000000000888 ) ;
#39 = DATE_AND_TIME ( #219, #241 ) ;
#40 = PERSON_AND_ORGANIZATION ( #151, #117 ) ;
#41 = ORIENTED_EDGE ( 'NONE', *, *, #21, .F. ) ;
#42 = CC_DESIGN_DATE_AND_TIME_ASSIGNMENT ( #126, #49, ( #55 ) ) ;
#43 = ORIENTED_EDGE ( 'NONE', *, *, #48, .F. ) ;
#44 = VERTEX_POINT ( 'NONE', #143 ) ;
#45 = CIRCLE ( 'NONE', #65, 0.1999999999999996503 ) ;
#46 = ORIENTED_EDGE ( 'NONE', *, *, #21, .T. ) ;
#47 = ORIENTED_EDGE ( 'NONE', *, *, #230, .T. ) ;
#48 = EDGE_CURVE ( 'NONE', #305, #213, #242, .T. ) ;
#49 = DATE_TIME_ROLE ( 'creation_date' ) ;
#50 = ORIENTED_EDGE ( 'NONE', *, *, #230, .F. ) ;
#51 = PERSON_AND_ORGANIZATION_ROLE ( 'design_supplier' ) ;
#52 = LOCAL_TIME ( 11, 37, 20.00000000000000000, #25 ) ;
#53 = ORIENTED_EDGE ( 'NONE', *, *, #224, .F. ) ;
#54 = COORDINATED_UNIVERSAL_TIME_OFFSET ( 1, 0, .AHEAD. ) ;
#55 = PRODUCT_DEFINITION ( 'NEZNÁMÝ', '', #131, #16 ) ;
#56 = DIRECTION ( 'NONE',  ( 1.000000000000000000, 0.000000000000000000, 0.000000000000000000 ) ) ;
#57 = LINE ( 'NONE', #300, #71 ) ;
#58 = DIRECTION ( 'NONE',  ( -1.000000000000000000, 0.000000000000000000, 0.000000000000000000 ) ) ;
#59 = DIRECTION ( 'NONE',  ( 0.000000000000000000, 0.000000000000000000, 1.000000000000000000 ) ) ;
#60 = DIRECTION ( 'NONE',  ( 1.000000000000000000, 0.000000000000000000, 0.000000000000000000 ) ) ;
#61 = CARTESIAN_POINT ( 'NONE',  ( -8.000000000000000000, 0.000000000000000000, 5.000000000000000000 ) ) ;
#62 = EDGE_CURVE ( 'NONE', #213, #29, #140, .T. ) ;
#63 = PERSON_AND_ORGANIZATION_ROLE ( 'design_owner' ) ;
#64 = APPROVAL_STATUS ( 'not_yet_approved' ) ;
#65 = AXIS2_PLACEMENT_3D ( 'NONE', #168, #223, #226 ) ;
#66 = ADVANCED_FACE ( 'NONE', ( #73 ), #289, .F. ) ;
#67 = ORIENTED_EDGE ( 'NONE', *, *, #284, .T. ) ;
#68 = COORDINATED_UNIVERSAL_TIME_OFFSET ( 1, 0, .AHEAD. ) ;
#69 = ORIENTED_EDGE ( 'NONE', *, *, #187, .F. ) ;
#70 = DATE_AND_TIME ( #200, #52 ) ;
#71 = VECTOR ( 'NONE', #82, 1000.000000000000000 ) ;
#72 = CC_DESIGN_PERSON_AND_ORGANIZATION_ASSIGNMENT ( #247, #174, ( #131 ) ) ;
#73 = FACE_OUTER_BOUND ( 'NONE', #91, .T. ) ;
#74 = FACE_OUTER_BOUND ( 'NONE', #217, .T. ) ;
#75 = APPROVAL_ROLE ( '' ) ;
#76 = DIRECTION ( 'NONE',  ( 0.000000000000000000, -1.000000000000000000, 0.000000000000000000 ) ) ;
#77 = ADVANCED_FACE ( 'NONE', ( #147 ), #290, .T. ) ;
#78 = AXIS2_PLACEMENT_3D ( 'NONE', #155, #232, #254 ) ;
#79 = ORIENTED_EDGE ( 'NONE', *, *, #187, .T. ) ;
#80 = DIRECTION ( 'NONE',  ( -0.000000000000000000, -0.000000000000000000, -1.000000000000000000 ) ) ;
#81 = DIRECTION ( 'NONE',  ( 1.000000000000000000, 0.000000000000000000, 0.000000000000000000 ) ) ;
#82 = DIRECTION ( 'NONE',  ( -0.000000000000000000, -0.000000000000000000, -1.000000000000000000 ) ) ;
#83 = CARTESIAN_POINT ( 'NONE',  ( 5.450000000000001066, 0.000000000000000000, 5.000000000000005329 ) ) ;
#84 = APPLICATION_CONTEXT ( 'configuration controlled 3d designs of mechanical parts and assemblies' ) ;
#85 = APPROVAL ( #64, 'NEURÈENÝ' ) ;
#86 = DIRECTION ( 'NONE',  ( 1.000000000000000000, 0.000000000000000000, 0.000000000000000000 ) ) ;
#87 = DIRECTION ( 'NONE',  ( -0.000000000000000000, -0.000000000000000000, -1.000000000000000000 ) ) ;
#88 = UNCERTAINTY_MEASURE_WITH_UNIT (LENGTH_MEASURE( 1.000000000000000082E-05 ), #182, 'distance_accuracy_value', 'NONE');
#89 = ORIENTED_EDGE ( 'NONE', *, *, #171, .F. ) ;
#90 =( NAMED_UNIT ( * ) SI_UNIT ( $, .STERADIAN. ) SOLID_ANGLE_UNIT ( ) );
#91 = EDGE_LOOP ( 'NONE', ( #100, #41 ) ) ;
#92 = AXIS2_PLACEMENT_3D ( 'NONE', #158, #35, #81 ) ;
#93 = CC_DESIGN_SECURITY_CLASSIFICATION ( #190, ( #131 ) ) ;
#94 = ORIENTED_EDGE ( 'NONE', *, *, #263, .F. ) ;
#95 = ORIENTED_EDGE ( 'NONE', *, *, #11, .T. ) ;
#96 = ADVANCED_FACE ( 'NONE', ( #148, #74 ), #22, .T. ) ;
#97 = VERTEX_POINT ( 'NONE', #124 ) ;
#98 = CIRCLE ( 'NONE', #78, 5.250000000000000888 ) ;
#99 = EDGE_LOOP ( 'NONE', ( #258, #95, #50, #20 ) ) ;
#100 = ORIENTED_EDGE ( 'NONE', *, *, #62, .F. ) ;
#101 = DIRECTION ( 'NONE',  ( -0.000000000000000000, -0.000000000000000000, -1.000000000000000000 ) ) ;
#102 = APPROVAL_STATUS ( 'not_yet_approved' ) ;
#103 = CLOSED_SHELL ( 'NONE', ( #150, #142, #303, #77, #96, #66, #209, #133, #202 ) ) ;
#104 = APPROVAL_PERSON_ORGANIZATION ( #40, #85, #114 ) ;
#105 = DIRECTION ( 'NONE',  ( 1.000000000000000000, 0.000000000000000000, 0.000000000000000000 ) ) ;
#106 = CARTESIAN_POINT ( 'NONE',  ( 0.000000000000000000, 0.000000000000000000, 255.0000000000000000 ) ) ;
#107 = DIRECTION ( 'NONE',  ( -0.000000000000000000, -0.000000000000000000, -1.000000000000000000 ) ) ;
#108 = TOROIDAL_SURFACE ( 'NONE', #215, 5.450000000000001066, 0.2000000000000000111 ) ;
#109 = AXIS2_PLACEMENT_3D ( 'NONE', #216, #87, #188 ) ;
#110 = DIRECTION ( 'NONE',  ( 1.000000000000000000, 0.000000000000000000, 0.000000000000000000 ) ) ;
#111 = CARTESIAN_POINT ( 'NONE',  ( 0.000000000000000000, 0.000000000000000000, 255.0000000000000000 ) ) ;
#112 = VERTEX_POINT ( 'NONE', #228 ) ;
#113 = CC_DESIGN_DATE_AND_TIME_ASSIGNMENT ( #146, #291, ( #190 ) ) ;
#114 = APPROVAL_ROLE ( '' ) ;
#115 = EDGE_CURVE ( 'NONE', #141, #119, #130, .T. ) ;
#116 = ORIENTED_EDGE ( 'NONE', *, *, #248, .T. ) ;
#117 = ORGANIZATION ( 'NEURÈENÝ', 'NEURÈENÝ', '' ) ;
#118 = CARTESIAN_POINT ( 'NONE',  ( 0.000000000000000000, 0.000000000000000000, 5.000000000000000000 ) ) ;
#119 = VERTEX_POINT ( 'NONE', #83 ) ;
#120 = APPROVAL_ROLE ( '' ) ;
#121 = ORIENTED_EDGE ( 'NONE', *, *, #48, .T. ) ;
#122 = CIRCLE ( 'NONE', #277, 8.000000000000000000 ) ;
#123 = LOCAL_TIME ( 11, 37, 20.00000000000000000, #68 ) ;
#124 = CARTESIAN_POINT ( 'NONE',  ( 8.000000000000000000, 9.797174393178825657E-16, 5.000000000000000000 ) ) ;
#125 = ORIENTED_EDGE ( 'NONE', *, *, #234, .T. ) ;
#126 = DATE_AND_TIME ( #172, #123 ) ;
#127 = ADVANCED_BREP_SHAPE_REPRESENTATION ( '6c6d', ( #27, #262 ), #201 ) ;
#128 = DIRECTION ( 'NONE',  ( -0.000000000000000000, -0.000000000000000000, -1.000000000000000000 ) ) ;
#129 = AXIS2_PLACEMENT_3D ( 'NONE', #203, #10, #110 ) ;
#130 = CIRCLE ( 'NONE', #26, 0.1999999999999996503 ) ;
#131 = PRODUCT_DEFINITION_FORMATION_WITH_SPECIFIED_SOURCE ( 'LIBOVOLNÝ', '', #239, .NOT_KNOWN. ) ;
#132 = DIRECTION ( 'NONE',  ( 0.000000000000000000, 0.000000000000000000, 1.000000000000000000 ) ) ;
#133 = ADVANCED_FACE ( 'NONE', ( #297 ), #12, .T. ) ;
#134 = CARTESIAN_POINT ( 'NONE',  ( -8.000000000000000000, 0.000000000000000000, 0.000000000000000000 ) ) ;
#135 = DIRECTION ( 'NONE',  ( 0.000000000000000000, 0.000000000000000000, 1.000000000000000000 ) ) ;
#136 = FACE_OUTER_BOUND ( 'NONE', #306, .T. ) ;
#137 =( NAMED_UNIT ( * ) PLANE_ANGLE_UNIT ( ) SI_UNIT ( $, .RADIAN. ) );
#138 = CYLINDRICAL_SURFACE ( 'NONE', #109, 8.000000000000000000 ) ;
#139 = VERTEX_POINT ( 'NONE', #206 ) ;
#140 = CIRCLE ( 'NONE', #287, 8.000000000000000000 ) ;
#141 = VERTEX_POINT ( 'NONE', #208 ) ;
#142 = ADVANCED_FACE ( 'NONE', ( #157 ), #181, .T. ) ;
#143 = CARTESIAN_POINT ( 'NONE',  ( -5.250000000000000888, 0.000000000000000000, 5.200000000000009948 ) ) ;
#144 = AXIS2_PLACEMENT_3D ( 'NONE', #196, #173, #267 ) ;
#145 = CARTESIAN_POINT ( 'NONE',  ( 0.000000000000000000, 0.000000000000000000, 0.000000000000000000 ) ) ;
#146 = DATE_AND_TIME ( #4, #282 ) ;
#147 = FACE_OUTER_BOUND ( 'NONE', #273, .T. ) ;
#148 = FACE_BOUND ( 'NONE', #23, .T. ) ;
#149 = AXIS2_PLACEMENT_3D ( 'NONE', #159, #275, #279 ) ;
#150 = ADVANCED_FACE ( 'NONE', ( #251 ), #207, .F. ) ;
#151 = PERSON ( 'NEURÈENÝ', 'NEURÈENÝ', 'NEURÈENÝ', ('NEURÈENÝ'), ('NEURÈENÝ'), ('NEURÈENÝ') ) ;
#152 = ORIENTED_EDGE ( 'NONE', *, *, #224, .T. ) ;
#153 = SHAPE_DEFINITION_REPRESENTATION ( #189, #127 ) ;
#154 = PRODUCT_RELATED_PRODUCT_CATEGORY ( 'detail', '', ( #239 ) ) ;
#155 = CARTESIAN_POINT ( 'NONE',  ( 0.000000000000000000, 0.000000000000000000, 5.200000000000009948 ) ) ;
#156 = DIRECTION ( 'NONE',  ( 1.000000000000000000, 0.000000000000000000, 0.000000000000000000 ) ) ;
#157 = FACE_OUTER_BOUND ( 'NONE', #244, .T. ) ;
#158 = CARTESIAN_POINT ( 'NONE',  ( 0.000000000000000000, 0.000000000000000000, 5.000000000000000000 ) ) ;
#159 = CARTESIAN_POINT ( 'NONE',  ( 0.000000000000000000, 0.000000000000000000, 255.0000000000000000 ) ) ;
#160 = PERSON_AND_ORGANIZATION_ROLE ( 'creator' ) ;
#161 = APPLICATION_PROTOCOL_DEFINITION ( 'international standard', 'config_control_design', 1994, #218 ) ;
#162 = APPROVAL ( #197, 'NEURÈENÝ' ) ;
#163 = ORIENTED_EDGE ( 'NONE', *, *, #177, .F. ) ;
#164 = CC_DESIGN_PERSON_AND_ORGANIZATION_ASSIGNMENT ( #283, #63, ( #239 ) ) ;
#165 = PERSON_AND_ORGANIZATION ( #151, #117 ) ;
#166 = VECTOR ( 'NONE', #229, 1000.000000000000000 ) ;
#167 = CARTESIAN_POINT ( 'NONE',  ( -8.000000000000000000, 0.000000000000000000, 5.000000000000000000 ) ) ;
#168 = CARTESIAN_POINT ( 'NONE',  ( -5.450000000000001066, 6.674325055353076224E-16, 5.200000000000009948 ) ) ;
#169 = COORDINATED_UNIVERSAL_TIME_OFFSET ( 1, 0, .AHEAD. ) ;
#170 = ORIENTED_EDGE ( 'NONE', *, *, #256, .F. ) ;
#171 = EDGE_CURVE ( 'NONE', #97, #29, #253, .T. ) ;
#172 = CALENDAR_DATE ( 2022, 20, 6 ) ;
#173 = DIRECTION ( 'NONE',  ( 0.000000000000000000, 0.000000000000000000, 1.000000000000000000 ) ) ;
#174 = PERSON_AND_ORGANIZATION_ROLE ( 'creator' ) ;
#175 = AXIS2_PLACEMENT_3D ( 'NONE', #6, #101, #264 ) ;
#176 = DIRECTION ( 'NONE',  ( 0.000000000000000000, 0.000000000000000000, 1.000000000000000000 ) ) ;
#177 = EDGE_CURVE ( 'NONE', #112, #194, #38, .T. ) ;
#178 = CARTESIAN_POINT ( 'NONE',  ( 0.000000000000000000, 0.000000000000000000, 255.0000000000000000 ) ) ;
#179 = CARTESIAN_POINT ( 'NONE',  ( -5.250000000000000888, 0.000000000000000000, 255.0000000000000000 ) ) ;
#180 = AXIS2_PLACEMENT_3D ( 'NONE', #8, #274, #156 ) ;
#181 = CYLINDRICAL_SURFACE ( 'NONE', #193, 5.250000000000000888 ) ;
#182 =( LENGTH_UNIT ( ) NAMED_UNIT ( * ) SI_UNIT ( .MILLI., .METRE. ) );
#183 = VECTOR ( 'NONE', #299, 1000.000000000000000 ) ;
#184 = CC_DESIGN_APPROVAL ( #85, ( #55 ) ) ;
#185 = MECHANICAL_CONTEXT ( 'NONE', #84, 'mechanical' ) ;
#186 = ORIENTED_EDGE ( 'NONE', *, *, #256, .T. ) ;
#187 = EDGE_CURVE ( 'NONE', #139, #119, #301, .T. ) ;
#188 = DIRECTION ( 'NONE',  ( -1.000000000000000000, 0.000000000000000000, 0.000000000000000000 ) ) ;
#189 = PRODUCT_DEFINITION_SHAPE ( 'NONE', 'NONE',  #55 ) ;
#190 = SECURITY_CLASSIFICATION ( '', '', #227 ) ;
#191 = ORIENTED_EDGE ( 'NONE', *, *, #177, .T. ) ;
#192 = DATE_AND_TIME ( #7, #14 ) ;
#193 = AXIS2_PLACEMENT_3D ( 'NONE', #231, #80, #58 ) ;
#194 = VERTEX_POINT ( 'NONE', #37 ) ;
#195 = PERSON_AND_ORGANIZATION_ROLE ( 'classification_officer' ) ;
#196 = CARTESIAN_POINT ( 'NONE',  ( 0.000000000000000000, 0.000000000000000000, 0.000000000000000000 ) ) ;
#197 = APPROVAL_STATUS ( 'not_yet_approved' ) ;
#198 = CARTESIAN_POINT ( 'NONE',  ( 5.450000000000001066, 0.000000000000000000, 5.200000000000009948 ) ) ;
#199 = ORIENTED_EDGE ( 'NONE', *, *, #284, .F. ) ;
#200 = CALENDAR_DATE ( 2022, 20, 6 ) ;
#201 =( GEOMETRIC_REPRESENTATION_CONTEXT ( 3 ) GLOBAL_UNCERTAINTY_ASSIGNED_CONTEXT ( ( #88 ) ) GLOBAL_UNIT_ASSIGNED_CONTEXT ( ( #182, #137, #90 ) ) REPRESENTATION_CONTEXT ( 'NONE', 'WORKASPACE' ) );
#202 = ADVANCED_FACE ( 'NONE', ( #136 ), #108, .F. ) ;
#203 = CARTESIAN_POINT ( 'NONE',  ( 0.000000000000000000, 0.000000000000000000, 5.200000000000009948 ) ) ;
#204 = CC_DESIGN_PERSON_AND_ORGANIZATION_ASSIGNMENT ( #165, #195, ( #190 ) ) ;
#205 = DIRECTION ( 'NONE',  ( 1.000000000000000000, 0.000000000000000000, 0.000000000000000000 ) ) ;
#206 = CARTESIAN_POINT ( 'NONE',  ( -5.450000000000001066, 6.674325055353076224E-16, 5.000000000000005329 ) ) ;
#207 = TOROIDAL_SURFACE ( 'NONE', #129, 5.450000000000001066, 0.2000000000000000111 ) ;
#208 = CARTESIAN_POINT ( 'NONE',  ( 5.250000000000000888, 6.429395695523605139E-16, 5.200000000000009948 ) ) ;
#209 = ADVANCED_FACE ( 'NONE', ( #210 ), #9, .T. ) ;
#210 = FACE_OUTER_BOUND ( 'NONE', #28, .T. ) ;
#211 = CC_DESIGN_PERSON_AND_ORGANIZATION_ASSIGNMENT ( #286, #51, ( #131 ) ) ;
#212 = APPLICATION_PROTOCOL_DEFINITION ( 'international standard', 'config_control_design', 1994, #84 ) ;
#213 = VERTEX_POINT ( 'NONE', #134 ) ;
#214 = CC_DESIGN_PERSON_AND_ORGANIZATION_ASSIGNMENT ( #280, #160, ( #55 ) ) ;
#215 = AXIS2_PLACEMENT_3D ( 'NONE', #15, #176, #278 ) ;
#216 = CARTESIAN_POINT ( 'NONE',  ( 0.000000000000000000, 0.000000000000000000, 5.000000000000000000 ) ) ;
#217 = EDGE_LOOP ( 'NONE', ( #152, #186 ) ) ;
#218 = APPLICATION_CONTEXT ( 'configuration controlled 3d designs of mechanical parts and assemblies' ) ;
#219 = CALENDAR_DATE ( 2022, 20, 6 ) ;
#220 = EDGE_CURVE ( 'NONE', #112, #141, #57, .T. ) ;
#221 = ORIENTED_EDGE ( 'NONE', *, *, #220, .T. ) ;
#222 = DIRECTION ( 'NONE',  ( 0.000000000000000000, 0.000000000000000000, 1.000000000000000000 ) ) ;
#223 = DIRECTION ( 'NONE',  ( 1.224646799147353207E-16, 1.000000000000000000, -0.000000000000000000 ) ) ;
#224 = EDGE_CURVE ( 'NONE', #305, #97, #252, .T. ) ;
#225 = CIRCLE ( 'NONE', #92, 5.450000000000001066 ) ;
#226 = DIRECTION ( 'NONE',  ( -1.000000000000000000, 1.224646799147353454E-16, 0.000000000000000000 ) ) ;
#227 = SECURITY_CLASSIFICATION_LEVEL ( 'unclassified' ) ;
#228 = CARTESIAN_POINT ( 'NONE',  ( 5.250000000000000888, 6.429395695523605139E-16, 255.0000000000000000 ) ) ;
#229 = DIRECTION ( 'NONE',  ( -0.000000000000000000, -0.000000000000000000, -1.000000000000000000 ) ) ;
#230 = EDGE_CURVE ( 'NONE', #119, #139, #225, .T. ) ;
#231 = CARTESIAN_POINT ( 'NONE',  ( 0.000000000000000000, 0.000000000000000000, 255.0000000000000000 ) ) ;
#232 = DIRECTION ( 'NONE',  ( 0.000000000000000000, 0.000000000000000000, 1.000000000000000000 ) ) ;
#233 = DIRECTION ( 'NONE',  ( -1.000000000000000000, 0.000000000000000000, 0.000000000000000000 ) ) ;
#234 = EDGE_CURVE ( 'NONE', #194, #112, #261, .T. ) ;
#235 = DIRECTION ( 'NONE',  ( 1.000000000000000000, 0.000000000000000000, 0.000000000000000000 ) ) ;
#236 = AXIS2_PLACEMENT_3D ( 'NONE', #111, #132, #56 ) ;
#237 = CC_DESIGN_APPROVAL ( #162, ( #190 ) ) ;
#238 = CARTESIAN_POINT ( 'NONE',  ( 8.000000000000000000, 9.797174393178825657E-16, 5.000000000000000000 ) ) ;
#239 = PRODUCT ( '6c6d', '6c6d', '', ( #185 ) ) ;
#240 = ORIENTED_EDGE ( 'NONE', *, *, #234, .F. ) ;
#241 = LOCAL_TIME ( 11, 37, 20.00000000000000000, #257 ) ;
#242 = LINE ( 'NONE', #167, #166 ) ;
#243 = CARTESIAN_POINT ( 'NONE',  ( 0.000000000000000000, 0.000000000000000000, 0.000000000000000000 ) ) ;
#244 = EDGE_LOOP ( 'NONE', ( #163, #221, #293, #199 ) ) ;
#245 = VECTOR ( 'NONE', #128, 1000.000000000000000 ) ;
#246 = DIRECTION ( 'NONE',  ( 1.000000000000000000, 0.000000000000000000, -0.000000000000000000 ) ) ;
#247 = PERSON_AND_ORGANIZATION ( #151, #117 ) ;
#248 = EDGE_CURVE ( 'NONE', #44, #141, #98, .T. ) ;
#249 = DIRECTION ( 'NONE',  ( 1.000000000000000000, 0.000000000000000000, 0.000000000000000000 ) ) ;
#250 = CARTESIAN_POINT ( 'NONE',  ( 0.000000000000000000, 0.000000000000000000, 5.200000000000009948 ) ) ;
#251 = FACE_OUTER_BOUND ( 'NONE', #99, .T. ) ;
#252 = CIRCLE ( 'NONE', #180, 8.000000000000000000 ) ;
#253 = LINE ( 'NONE', #238, #183 ) ;
#254 = DIRECTION ( 'NONE',  ( 1.000000000000000000, 0.000000000000000000, 0.000000000000000000 ) ) ;
#255 = CARTESIAN_POINT ( 'NONE',  ( 0.000000000000000000, 0.000000000000000000, 5.000000000000000000 ) ) ;
#256 = EDGE_CURVE ( 'NONE', #97, #305, #122, .T. ) ;
#257 = COORDINATED_UNIVERSAL_TIME_OFFSET ( 1, 0, .AHEAD. ) ;
#258 = ORIENTED_EDGE ( 'NONE', *, *, #248, .F. ) ;
#259 = CARTESIAN_POINT ( 'NONE',  ( 0.000000000000000000, 0.000000000000000000, 0.000000000000000000 ) ) ;
#260 = ORIENTED_EDGE ( 'NONE', *, *, #115, .T. ) ;
#261 = CIRCLE ( 'NONE', #236, 5.250000000000000888 ) ;
#262 = AXIS2_PLACEMENT_3D ( 'NONE', #259, #19, #86 ) ;
#263 = EDGE_CURVE ( 'NONE', #141, #44, #298, .T. ) ;
#264 = DIRECTION ( 'NONE',  ( -1.000000000000000000, 0.000000000000000000, 0.000000000000000000 ) ) ;
#265 = PERSON_AND_ORGANIZATION ( #151, #117 ) ;
#266 = AXIS2_PLACEMENT_3D ( 'NONE', #118, #222, #246 ) ;
#267 = DIRECTION ( 'NONE',  ( 1.000000000000000000, 0.000000000000000000, 0.000000000000000000 ) ) ;
#268 = DIRECTION ( 'NONE',  ( 0.000000000000000000, 0.000000000000000000, 1.000000000000000000 ) ) ;
#269 = APPROVAL_DATE_TIME ( #192, #32 ) ;
#270 = ORIENTED_EDGE ( 'NONE', *, *, #171, .T. ) ;
#271 = PERSON_AND_ORGANIZATION ( #151, #117 ) ;
#272 = AXIS2_PLACEMENT_3D ( 'NONE', #250, #295, #205 ) ;
#273 = EDGE_LOOP ( 'NONE', ( #89, #53, #121, #5 ) ) ;
#274 = DIRECTION ( 'NONE',  ( 0.000000000000000000, 0.000000000000000000, 1.000000000000000000 ) ) ;
#275 = DIRECTION ( 'NONE',  ( 0.000000000000000000, 0.000000000000000000, 1.000000000000000000 ) ) ;
#276 = FACE_OUTER_BOUND ( 'NONE', #17, .T. ) ;
#277 = AXIS2_PLACEMENT_3D ( 'NONE', #36, #135, #235 ) ;
#278 = DIRECTION ( 'NONE',  ( 1.000000000000000000, 0.000000000000000000, 0.000000000000000000 ) ) ;
#279 = DIRECTION ( 'NONE',  ( 1.000000000000000000, 0.000000000000000000, -0.000000000000000000 ) ) ;
#280 = PERSON_AND_ORGANIZATION ( #151, #117 ) ;
#281 = CIRCLE ( 'NONE', #144, 8.000000000000000000 ) ;
#282 = LOCAL_TIME ( 11, 37, 20.00000000000000000, #54 ) ;
#283 = PERSON_AND_ORGANIZATION ( #151, #117 ) ;
#284 = EDGE_CURVE ( 'NONE', #194, #44, #31, .T. ) ;
#285 = DIRECTION ( 'NONE',  ( 0.000000000000000000, 0.000000000000000000, -1.000000000000000000 ) ) ;
#286 = PERSON_AND_ORGANIZATION ( #151, #117 ) ;
#287 = AXIS2_PLACEMENT_3D ( 'NONE', #145, #3, #249 ) ;
#288 = ORIENTED_EDGE ( 'NONE', *, *, #220, .F. ) ;
#289 = PLANE ( 'NONE',  #292 ) ;
#290 = CYLINDRICAL_SURFACE ( 'NONE', #175, 8.000000000000000000 ) ;
#291 = DATE_TIME_ROLE ( 'classification_date' ) ;
#292 = AXIS2_PLACEMENT_3D ( 'NONE', #243, #268, #1 ) ;
#293 = ORIENTED_EDGE ( 'NONE', *, *, #263, .T. ) ;
#294 = CC_DESIGN_APPROVAL ( #32, ( #131 ) ) ;
#295 = DIRECTION ( 'NONE',  ( 0.000000000000000000, 0.000000000000000000, 1.000000000000000000 ) ) ;
#296 = DIRECTION ( 'NONE',  ( -0.000000000000000000, -0.000000000000000000, -1.000000000000000000 ) ) ;
#297 = FACE_OUTER_BOUND ( 'NONE', #307, .T. ) ;
#298 = CIRCLE ( 'NONE', #272, 5.250000000000000888 ) ;
#299 = DIRECTION ( 'NONE',  ( -0.000000000000000000, -0.000000000000000000, -1.000000000000000000 ) ) ;
#300 = CARTESIAN_POINT ( 'NONE',  ( 5.250000000000000888, 6.429395695523605139E-16, 255.0000000000000000 ) ) ;
#301 = CIRCLE ( 'NONE', #33, 5.450000000000001066 ) ;
#302 = ORIENTED_EDGE ( 'NONE', *, *, #11, .F. ) ;
#303 = ADVANCED_FACE ( 'NONE', ( #276 ), #138, .T. ) ;
#304 = APPROVAL_DATE_TIME ( #39, #85 ) ;
#305 = VERTEX_POINT ( 'NONE', #61 ) ;
#306 = EDGE_LOOP ( 'NONE', ( #302, #94, #260, #69 ) ) ;
#307 = EDGE_LOOP ( 'NONE', ( #125, #191 ) ) ;
ENDSEC;
END-ISO-10303-21;
