ISO-10303-21;
HEADER;
FILE_DESCRIPTION (( 'STEP AP203' ),
    '1' );
FILE_NAME ('8cf8.STEP',
    '2022-06-20T10:16:26',
    ( '' ),
    ( '' ),
    'SwSTEP 2.0',
    'SolidWorks 2019',
    '' );
FILE_SCHEMA (( 'CONFIG_CONTROL_DESIGN' ));
ENDSEC;

DATA;
#1 = DIRECTION ( 'NONE',  ( -1.000000000000000000, 0.000000000000000000, 0.000000000000000000 ) ) ;
#2 = CARTESIAN_POINT ( 'NONE',  ( 0.000000000000000000, 0.000000000000000000, 163.0000000000000000 ) ) ;
#3 = DATE_TIME_ROLE ( 'creation_date' ) ;
#4 = DIRECTION ( 'NONE',  ( -0.000000000000000000, -0.000000000000000000, -1.000000000000000000 ) ) ;
#5 = AXIS2_PLACEMENT_3D ( 'NONE', #175, #62, #83 ) ;
#6 = ORIENTED_EDGE ( 'NONE', *, *, #134, .T. ) ;
#7 = DIRECTION ( 'NONE',  ( 1.224646799147353207E-16, 1.000000000000000000, -0.000000000000000000 ) ) ;
#8 = CARTESIAN_POINT ( 'NONE',  ( 0.000000000000000000, 0.000000000000000000, 0.000000000000000000 ) ) ;
#9 = CALENDAR_DATE ( 2022, 20, 6 ) ;
#10 = DIRECTION ( 'NONE',  ( 0.000000000000000000, 0.000000000000000000, 1.000000000000000000 ) ) ;
#11 = FACE_OUTER_BOUND ( 'NONE', #108, .T. ) ;
#12 =( GEOMETRIC_REPRESENTATION_CONTEXT ( 3 ) GLOBAL_UNCERTAINTY_ASSIGNED_CONTEXT ( ( #163 ) ) GLOBAL_UNIT_ASSIGNED_CONTEXT ( ( #36, #253, #130 ) ) REPRESENTATION_CONTEXT ( 'NONE', 'WORKASPACE' ) );
#13 = EDGE_CURVE ( 'NONE', #89, #261, #137, .T. ) ;
#14 = PLANE ( 'NONE',  #221 ) ;
#15 = CARTESIAN_POINT ( 'NONE',  ( 3.000000000000000444, 3.673940397442060361E-16, 3.000000000000000000 ) ) ;
#16 = AXIS2_PLACEMENT_3D ( 'NONE', #168, #264, #284 ) ;
#17 = CIRCLE ( 'NONE', #298, 0.2000000000000000944 ) ;
#18 = CC_DESIGN_DATE_AND_TIME_ASSIGNMENT ( #276, #38, ( #303 ) ) ;
#19 = PERSON_AND_ORGANIZATION_ROLE ( 'classification_officer' ) ;
#20 = VERTEX_POINT ( 'NONE', #95 ) ;
#21 = ADVANCED_FACE ( 'NONE', ( #191 ), #141, .T. ) ;
#22 = EDGE_LOOP ( 'NONE', ( #48, #258 ) ) ;
#23 = CARTESIAN_POINT ( 'NONE',  ( 0.000000000000000000, 0.000000000000000000, 3.000000000000000000 ) ) ;
#24 = CARTESIAN_POINT ( 'NONE',  ( 0.000000000000000000, 0.000000000000000000, 3.200000000000008171 ) ) ;
#25 = AXIS2_PLACEMENT_3D ( 'NONE', #41, #160, #257 ) ;
#26 = ADVANCED_FACE ( 'NONE', ( #289, #145 ), #118, .T. ) ;
#27 = APPLICATION_PROTOCOL_DEFINITION ( 'international standard', 'config_control_design', 1994, #40 ) ;
#28 = DIRECTION ( 'NONE',  ( 1.000000000000000000, 0.000000000000000000, 0.000000000000000000 ) ) ;
#29 = FACE_OUTER_BOUND ( 'NONE', #267, .T. ) ;
#30 = PERSON_AND_ORGANIZATION_ROLE ( 'design_owner' ) ;
#31 = DIRECTION ( 'NONE',  ( -0.000000000000000000, -0.000000000000000000, -1.000000000000000000 ) ) ;
#32 = EDGE_CURVE ( 'NONE', #164, #20, #232, .T. ) ;
#33 = VECTOR ( 'NONE', #241, 1000.000000000000000 ) ;
#34 = AXIS2_PLACEMENT_3D ( 'NONE', #205, #230, #104 ) ;
#35 = COORDINATED_UNIVERSAL_TIME_OFFSET ( 1, 0, .AHEAD. ) ;
#36 =( LENGTH_UNIT ( ) NAMED_UNIT ( * ) SI_UNIT ( .MILLI., .METRE. ) );
#37 = DATE_AND_TIME ( #249, #229 ) ;
#38 = DATE_TIME_ROLE ( 'classification_date' ) ;
#39 = DIRECTION ( 'NONE',  ( 1.000000000000000000, 0.000000000000000000, 0.000000000000000000 ) ) ;
#40 = APPLICATION_CONTEXT ( 'configuration controlled 3d designs of mechanical parts and assemblies' ) ;
#41 = CARTESIAN_POINT ( 'NONE',  ( 1.700000000000000400, 0.000000000000000000, 3.200000000000008171 ) ) ;
#42 = ORIENTED_EDGE ( 'NONE', *, *, #263, .T. ) ;
#43 = PERSON_AND_ORGANIZATION ( #72, #177 ) ;
#44 = CARTESIAN_POINT ( 'NONE',  ( -3.000000000000000444, 0.000000000000000000, 0.000000000000000000 ) ) ;
#45 = AXIS2_PLACEMENT_3D ( 'NONE', #247, #116, #144 ) ;
#46 = VERTEX_POINT ( 'NONE', #93 ) ;
#47 = EDGE_CURVE ( 'NONE', #261, #131, #268, .T. ) ;
#48 = ORIENTED_EDGE ( 'NONE', *, *, #53, .T. ) ;
#49 = ORIENTED_EDGE ( 'NONE', *, *, #47, .T. ) ;
#50 = CIRCLE ( 'NONE', #123, 3.000000000000000444 ) ;
#51 = DIRECTION ( 'NONE',  ( 1.000000000000000000, 0.000000000000000000, 0.000000000000000000 ) ) ;
#52 = CARTESIAN_POINT ( 'NONE',  ( -1.700000000000000400, 2.081899558550500773E-16, 3.000000000000004441 ) ) ;
#53 = EDGE_CURVE ( 'NONE', #138, #87, #213, .T. ) ;
#54 = DIRECTION ( 'NONE',  ( -0.000000000000000000, -0.000000000000000000, -1.000000000000000000 ) ) ;
#55 = TOROIDAL_SURFACE ( 'NONE', #110, 1.700000000000000400, 0.2000000000000000111 ) ;
#56 = APPROVAL_PERSON_ORGANIZATION ( #194, #280, #147 ) ;
#57 = APPLICATION_PROTOCOL_DEFINITION ( 'international standard', 'config_control_design', 1994, #158 ) ;
#58 = DIRECTION ( 'NONE',  ( 1.000000000000000000, 0.000000000000000000, -0.000000000000000000 ) ) ;
#59 = LINE ( 'NONE', #251, #183 ) ;
#60 = DIRECTION ( 'NONE',  ( 0.000000000000000000, 0.000000000000000000, 1.000000000000000000 ) ) ;
#61 = APPROVAL_STATUS ( 'not_yet_approved' ) ;
#62 = DIRECTION ( 'NONE',  ( 0.000000000000000000, 0.000000000000000000, 1.000000000000000000 ) ) ;
#63 = MANIFOLD_SOLID_BREP ( 'Zaoblit1', #154 ) ;
#64 = DIRECTION ( 'NONE',  ( -1.000000000000000000, 1.224646799147353207E-16, 0.000000000000000000 ) ) ;
#65 = DIRECTION ( 'NONE',  ( 0.000000000000000000, 0.000000000000000000, 1.000000000000000000 ) ) ;
#66 = SHAPE_DEFINITION_REPRESENTATION ( #217, #203 ) ;
#67 = ADVANCED_FACE ( 'NONE', ( #74 ), #55, .F. ) ;
#68 = EDGE_LOOP ( 'NONE', ( #136, #70, #299, #42 ) ) ;
#69 = LOCAL_TIME ( 12, 16, 26.00000000000000000, #286 ) ;
#70 = ORIENTED_EDGE ( 'NONE', *, *, #13, .F. ) ;
#71 = ORIENTED_EDGE ( 'NONE', *, *, #295, .F. ) ;
#72 = PERSON ( 'NEURÈENÝ', 'NEURÈENÝ', 'NEURÈENÝ', ('NEURÈENÝ'), ('NEURÈENÝ'), ('NEURÈENÝ') ) ;
#73 = CIRCLE ( 'NONE', #293, 1.500000000000000222 ) ;
#74 = FACE_OUTER_BOUND ( 'NONE', #239, .T. ) ;
#75 = ADVANCED_FACE ( 'NONE', ( #29 ), #246, .T. ) ;
#76 = CARTESIAN_POINT ( 'NONE',  ( 0.000000000000000000, 0.000000000000000000, 3.000000000000000000 ) ) ;
#77 = DIRECTION ( 'NONE',  ( 1.000000000000000000, 0.000000000000000000, 0.000000000000000000 ) ) ;
#78 = EDGE_CURVE ( 'NONE', #87, #138, #188, .T. ) ;
#79 = DIRECTION ( 'NONE',  ( 1.000000000000000000, 0.000000000000000000, -0.000000000000000000 ) ) ;
#80 = LINE ( 'NONE', #173, #272 ) ;
#81 = PERSON_AND_ORGANIZATION_ROLE ( 'creator' ) ;
#82 = CC_DESIGN_DATE_AND_TIME_ASSIGNMENT ( #224, #3, ( #103 ) ) ;
#83 = DIRECTION ( 'NONE',  ( 1.000000000000000000, 0.000000000000000000, 0.000000000000000000 ) ) ;
#84 = CALENDAR_DATE ( 2022, 20, 6 ) ;
#85 = CARTESIAN_POINT ( 'NONE',  ( 1.500000000000000222, 1.836970198721030181E-16, 163.0000000000000000 ) ) ;
#86 = AXIS2_PLACEMENT_3D ( 'NONE', #143, #218, #77 ) ;
#87 = VERTEX_POINT ( 'NONE', #52 ) ;
#88 = APPROVAL_ROLE ( '' ) ;
#89 = VERTEX_POINT ( 'NONE', #122 ) ;
#90 = CC_DESIGN_APPROVAL ( #280, ( #185 ) ) ;
#91 = ORIENTED_EDGE ( 'NONE', *, *, #149, .T. ) ;
#92 = APPROVAL ( #150, 'NEURÈENÝ' ) ;
#93 = CARTESIAN_POINT ( 'NONE',  ( -1.500000000000000222, 0.000000000000000000, 3.200000000000008171 ) ) ;
#94 = AXIS2_PLACEMENT_3D ( 'NONE', #206, #153, #126 ) ;
#95 = CARTESIAN_POINT ( 'NONE',  ( -3.000000000000000444, 0.000000000000000000, 3.000000000000000000 ) ) ;
#96 = CARTESIAN_POINT ( 'NONE',  ( 1.500000000000000222, 1.836970198721030181E-16, 163.0000000000000000 ) ) ;
#97 = ADVANCED_FACE ( 'NONE', ( #98 ), #196, .T. ) ;
#98 = FACE_OUTER_BOUND ( 'NONE', #225, .T. ) ;
#99 = CIRCLE ( 'NONE', #25, 0.2000000000000000944 ) ;
#100 = DIRECTION ( 'NONE',  ( 0.000000000000000000, 0.000000000000000000, 1.000000000000000000 ) ) ;
#101 = PERSON_AND_ORGANIZATION ( #72, #177 ) ;
#102 = PERSON_AND_ORGANIZATION ( #72, #177 ) ;
#103 = PRODUCT_DEFINITION ( 'NEZNÁMÝ', '', #185, #109 ) ;
#104 = DIRECTION ( 'NONE',  ( -1.000000000000000000, 0.000000000000000000, 0.000000000000000000 ) ) ;
#105 = VECTOR ( 'NONE', #124, 1000.000000000000000 ) ;
#106 = ORIENTED_EDGE ( 'NONE', *, *, #149, .F. ) ;
#107 = ORIENTED_EDGE ( 'NONE', *, *, #204, .T. ) ;
#108 = EDGE_LOOP ( 'NONE', ( #256, #49, #260, #71 ) ) ;
#109 = DESIGN_CONTEXT ( 'detailed design', #158, 'design' ) ;
#110 = AXIS2_PLACEMENT_3D ( 'NONE', #166, #60, #223 ) ;
#111 = EDGE_LOOP ( 'NONE', ( #91, #113 ) ) ;
#112 = APPROVAL_PERSON_ORGANIZATION ( #234, #129, #88 ) ;
#113 = ORIENTED_EDGE ( 'NONE', *, *, #32, .T. ) ;
#114 = CARTESIAN_POINT ( 'NONE',  ( 0.000000000000000000, 0.000000000000000000, 3.000000000000000000 ) ) ;
#115 = DIRECTION ( 'NONE',  ( 1.000000000000000000, 0.000000000000000000, 0.000000000000000000 ) ) ;
#116 = DIRECTION ( 'NONE',  ( 0.000000000000000000, 0.000000000000000000, 1.000000000000000000 ) ) ;
#117 = CC_DESIGN_PERSON_AND_ORGANIZATION_ASSIGNMENT ( #292, #222, ( #185 ) ) ;
#118 = PLANE ( 'NONE',  #270 ) ;
#119 = CALENDAR_DATE ( 2022, 20, 6 ) ;
#120 = DIRECTION ( 'NONE',  ( 0.000000000000000000, 0.000000000000000000, 1.000000000000000000 ) ) ;
#121 = APPROVAL_DATE_TIME ( #243, #92 ) ;
#122 = CARTESIAN_POINT ( 'NONE',  ( -1.500000000000000222, 0.000000000000000000, 163.0000000000000000 ) ) ;
#123 = AXIS2_PLACEMENT_3D ( 'NONE', #114, #306, #189 ) ;
#124 = DIRECTION ( 'NONE',  ( -0.000000000000000000, -0.000000000000000000, -1.000000000000000000 ) ) ;
#125 = APPROVAL_DATE_TIME ( #37, #280 ) ;
#126 = DIRECTION ( 'NONE',  ( -1.000000000000000000, 0.000000000000000000, 0.000000000000000000 ) ) ;
#127 = FACE_OUTER_BOUND ( 'NONE', #301, .T. ) ;
#128 = CYLINDRICAL_SURFACE ( 'NONE', #34, 1.500000000000000222 ) ;
#129 = APPROVAL ( #227, 'NEURÈENÝ' ) ;
#130 =( NAMED_UNIT ( * ) SI_UNIT ( $, .STERADIAN. ) SOLID_ANGLE_UNIT ( ) );
#131 = VERTEX_POINT ( 'NONE', #262 ) ;
#132 = CIRCLE ( 'NONE', #281, 3.000000000000000444 ) ;
#133 = ORIENTED_EDGE ( 'NONE', *, *, #266, .T. ) ;
#134 = EDGE_CURVE ( 'NONE', #261, #89, #176, .T. ) ;
#135 = ORIENTED_EDGE ( 'NONE', *, *, #300, .F. ) ;
#136 = ORIENTED_EDGE ( 'NONE', *, *, #47, .F. ) ;
#137 = CIRCLE ( 'NONE', #142, 1.500000000000000222 ) ;
#138 = VERTEX_POINT ( 'NONE', #291 ) ;
#139 = CARTESIAN_POINT ( 'NONE',  ( 0.000000000000000000, 0.000000000000000000, 163.0000000000000000 ) ) ;
#140 = DIRECTION ( 'NONE',  ( 0.000000000000000000, 0.000000000000000000, 1.000000000000000000 ) ) ;
#141 = CYLINDRICAL_SURFACE ( 'NONE', #195, 1.500000000000000222 ) ;
#142 = AXIS2_PLACEMENT_3D ( 'NONE', #226, #170, #51 ) ;
#143 = CARTESIAN_POINT ( 'NONE',  ( 0.000000000000000000, 0.000000000000000000, 3.000000000000000000 ) ) ;
#144 = DIRECTION ( 'NONE',  ( 1.000000000000000000, 0.000000000000000000, 0.000000000000000000 ) ) ;
#145 = FACE_OUTER_BOUND ( 'NONE', #111, .T. ) ;
#146 = DIRECTION ( 'NONE',  ( 1.000000000000000000, 0.000000000000000000, 0.000000000000000000 ) ) ;
#147 = APPROVAL_ROLE ( '' ) ;
#148 = FACE_OUTER_BOUND ( 'NONE', #216, .T. ) ;
#149 = EDGE_CURVE ( 'NONE', #20, #164, #50, .T. ) ;
#150 = APPROVAL_STATUS ( 'not_yet_approved' ) ;
#151 = FACE_OUTER_BOUND ( 'NONE', #237, .T. ) ;
#152 = COORDINATED_UNIVERSAL_TIME_OFFSET ( 1, 0, .AHEAD. ) ;
#153 = DIRECTION ( 'NONE',  ( -0.000000000000000000, -0.000000000000000000, -1.000000000000000000 ) ) ;
#154 = CLOSED_SHELL ( 'NONE', ( #250, #255, #75, #208, #26, #244, #21, #97, #67 ) ) ;
#155 = CC_DESIGN_APPROVAL ( #129, ( #303 ) ) ;
#156 = DIRECTION ( 'NONE',  ( -0.000000000000000000, -0.000000000000000000, -1.000000000000000000 ) ) ;
#157 = CALENDAR_DATE ( 2022, 20, 6 ) ;
#158 = APPLICATION_CONTEXT ( 'configuration controlled 3d designs of mechanical parts and assemblies' ) ;
#159 = COORDINATED_UNIVERSAL_TIME_OFFSET ( 1, 0, .AHEAD. ) ;
#160 = DIRECTION ( 'NONE',  ( 0.000000000000000000, -1.000000000000000000, 0.000000000000000000 ) ) ;
#161 = ORIENTED_EDGE ( 'NONE', *, *, #53, .F. ) ;
#162 = APPROVAL_PERSON_ORGANIZATION ( #269, #92, #192 ) ;
#163 = UNCERTAINTY_MEASURE_WITH_UNIT (LENGTH_MEASURE( 1.000000000000000082E-05 ), #36, 'distance_accuracy_value', 'NONE');
#164 = VERTEX_POINT ( 'NONE', #287 ) ;
#165 = CC_DESIGN_PERSON_AND_ORGANIZATION_ASSIGNMENT ( #101, #81, ( #103 ) ) ;
#166 = CARTESIAN_POINT ( 'NONE',  ( 0.000000000000000000, 0.000000000000000000, 3.200000000000008171 ) ) ;
#167 = CIRCLE ( 'NONE', #171, 1.500000000000000222 ) ;
#168 = CARTESIAN_POINT ( 'NONE',  ( 0.000000000000000000, 0.000000000000000000, 3.000000000000000000 ) ) ;
#169 = CARTESIAN_POINT ( 'NONE',  ( 0.000000000000000000, 0.000000000000000000, 3.000000000000000000 ) ) ;
#170 = DIRECTION ( 'NONE',  ( 0.000000000000000000, 0.000000000000000000, 1.000000000000000000 ) ) ;
#171 = AXIS2_PLACEMENT_3D ( 'NONE', #182, #274, #254 ) ;
#172 = ORIENTED_EDGE ( 'NONE', *, *, #212, .F. ) ;
#173 = CARTESIAN_POINT ( 'NONE',  ( -3.000000000000000444, 0.000000000000000000, 3.000000000000000000 ) ) ;
#174 = EDGE_CURVE ( 'NONE', #131, #46, #73, .T. ) ;
#175 = CARTESIAN_POINT ( 'NONE',  ( 0.000000000000000000, 0.000000000000000000, 0.000000000000000000 ) ) ;
#176 = CIRCLE ( 'NONE', #259, 1.500000000000000222 ) ;
#177 = ORGANIZATION ( 'NEURÈENÝ', 'NEURÈENÝ', '' ) ;
#178 = CC_DESIGN_PERSON_AND_ORGANIZATION_ASSIGNMENT ( #198, #30, ( #290 ) ) ;
#179 = CARTESIAN_POINT ( 'NONE',  ( 0.000000000000000000, 0.000000000000000000, 3.200000000000008171 ) ) ;
#180 = DIRECTION ( 'NONE',  ( -0.000000000000000000, -0.000000000000000000, -1.000000000000000000 ) ) ;
#181 = APPROVAL_DATE_TIME ( #294, #129 ) ;
#182 = CARTESIAN_POINT ( 'NONE',  ( 0.000000000000000000, 0.000000000000000000, 3.200000000000008171 ) ) ;
#183 = VECTOR ( 'NONE', #156, 1000.000000000000000 ) ;
#184 = ORIENTED_EDGE ( 'NONE', *, *, #204, .F. ) ;
#185 = PRODUCT_DEFINITION_FORMATION_WITH_SPECIFIED_SOURCE ( 'LIBOVOLNÝ', '', #290, .NOT_KNOWN. ) ;
#186 = CC_DESIGN_PERSON_AND_ORGANIZATION_ASSIGNMENT ( #102, #201, ( #185 ) ) ;
#187 = VERTEX_POINT ( 'NONE', #220 ) ;
#188 = CIRCLE ( 'NONE', #307, 1.700000000000000400 ) ;
#189 = DIRECTION ( 'NONE',  ( 1.000000000000000000, 0.000000000000000000, 0.000000000000000000 ) ) ;
#190 = TOROIDAL_SURFACE ( 'NONE', #233, 1.700000000000000400, 0.2000000000000000111 ) ;
#191 = FACE_OUTER_BOUND ( 'NONE', #68, .T. ) ;
#192 = APPROVAL_ROLE ( '' ) ;
#193 = DIRECTION ( 'NONE',  ( 1.000000000000000000, 0.000000000000000000, 0.000000000000000000 ) ) ;
#194 = PERSON_AND_ORGANIZATION ( #72, #177 ) ;
#195 = AXIS2_PLACEMENT_3D ( 'NONE', #285, #4, #1 ) ;
#196 = PLANE ( 'NONE',  #279 ) ;
#197 = CIRCLE ( 'NONE', #5, 3.000000000000000444 ) ;
#198 = PERSON_AND_ORGANIZATION ( #72, #177 ) ;
#199 = DIRECTION ( 'NONE',  ( 0.000000000000000000, 0.000000000000000000, 1.000000000000000000 ) ) ;
#200 = COORDINATED_UNIVERSAL_TIME_OFFSET ( 1, 0, .AHEAD. ) ;
#201 = PERSON_AND_ORGANIZATION_ROLE ( 'creator' ) ;
#202 = CYLINDRICAL_SURFACE ( 'NONE', #94, 3.000000000000000444 ) ;
#203 = ADVANCED_BREP_SHAPE_REPRESENTATION ( '8cf8', ( #63, #45 ), #12 ) ;
#204 = EDGE_CURVE ( 'NONE', #164, #187, #297, .T. ) ;
#205 = CARTESIAN_POINT ( 'NONE',  ( 0.000000000000000000, 0.000000000000000000, 163.0000000000000000 ) ) ;
#206 = CARTESIAN_POINT ( 'NONE',  ( 0.000000000000000000, 0.000000000000000000, 3.000000000000000000 ) ) ;
#207 = AXIS2_PLACEMENT_3D ( 'NONE', #169, #54, #28 ) ;
#208 = ADVANCED_FACE ( 'NONE', ( #148 ), #202, .T. ) ;
#209 = ORIENTED_EDGE ( 'NONE', *, *, #174, .F. ) ;
#210 = ORIENTED_EDGE ( 'NONE', *, *, #13, .T. ) ;
#211 = ORIENTED_EDGE ( 'NONE', *, *, #236, .T. ) ;
#212 = EDGE_CURVE ( 'NONE', #187, #277, #197, .T. ) ;
#213 = CIRCLE ( 'NONE', #207, 1.700000000000000400 ) ;
#214 = LOCAL_TIME ( 12, 16, 26.00000000000000000, #159 ) ;
#215 = CC_DESIGN_SECURITY_CLASSIFICATION ( #303, ( #185 ) ) ;
#216 = EDGE_LOOP ( 'NONE', ( #184, #106, #278, #302 ) ) ;
#217 = PRODUCT_DEFINITION_SHAPE ( 'NONE', 'NONE',  #103 ) ;
#218 = DIRECTION ( 'NONE',  ( 0.000000000000000000, 0.000000000000000000, 1.000000000000000000 ) ) ;
#219 = CC_DESIGN_PERSON_AND_ORGANIZATION_ASSIGNMENT ( #43, #19, ( #303 ) ) ;
#220 = CARTESIAN_POINT ( 'NONE',  ( 3.000000000000000444, 3.673940397442060361E-16, 0.000000000000000000 ) ) ;
#221 = AXIS2_PLACEMENT_3D ( 'NONE', #248, #10, #252 ) ;
#222 = PERSON_AND_ORGANIZATION_ROLE ( 'design_supplier' ) ;
#223 = DIRECTION ( 'NONE',  ( 1.000000000000000000, 0.000000000000000000, 0.000000000000000000 ) ) ;
#224 = DATE_AND_TIME ( #119, #242 ) ;
#225 = EDGE_LOOP ( 'NONE', ( #210, #6 ) ) ;
#226 = CARTESIAN_POINT ( 'NONE',  ( 0.000000000000000000, 0.000000000000000000, 163.0000000000000000 ) ) ;
#227 = APPROVAL_STATUS ( 'not_yet_approved' ) ;
#228 = PRODUCT_RELATED_PRODUCT_CATEGORY ( 'detail', '', ( #290 ) ) ;
#229 = LOCAL_TIME ( 12, 16, 26.00000000000000000, #200 ) ;
#230 = DIRECTION ( 'NONE',  ( -0.000000000000000000, -0.000000000000000000, -1.000000000000000000 ) ) ;
#231 = ORIENTED_EDGE ( 'NONE', *, *, #266, .F. ) ;
#232 = CIRCLE ( 'NONE', #86, 3.000000000000000444 ) ;
#233 = AXIS2_PLACEMENT_3D ( 'NONE', #179, #273, #39 ) ;
#234 = PERSON_AND_ORGANIZATION ( #72, #177 ) ;
#235 = ORIENTED_EDGE ( 'NONE', *, *, #78, .F. ) ;
#236 = EDGE_CURVE ( 'NONE', #46, #87, #17, .T. ) ;
#237 = EDGE_LOOP ( 'NONE', ( #282, #172 ) ) ;
#238 = ORIENTED_EDGE ( 'NONE', *, *, #212, .T. ) ;
#239 = EDGE_LOOP ( 'NONE', ( #304, #209, #133, #235 ) ) ;
#240 = DIRECTION ( 'NONE',  ( 1.000000000000000000, 0.000000000000000000, 0.000000000000000000 ) ) ;
#241 = DIRECTION ( 'NONE',  ( -0.000000000000000000, -0.000000000000000000, -1.000000000000000000 ) ) ;
#242 = LOCAL_TIME ( 12, 16, 26.00000000000000000, #35 ) ;
#243 = DATE_AND_TIME ( #9, #69 ) ;
#244 = ADVANCED_FACE ( 'NONE', ( #151 ), #14, .F. ) ;
#245 = MECHANICAL_CONTEXT ( 'NONE', #40, 'mechanical' ) ;
#246 = CYLINDRICAL_SURFACE ( 'NONE', #16, 3.000000000000000444 ) ;
#247 = CARTESIAN_POINT ( 'NONE',  ( 0.000000000000000000, 0.000000000000000000, 0.000000000000000000 ) ) ;
#248 = CARTESIAN_POINT ( 'NONE',  ( 0.000000000000000000, 0.000000000000000000, 0.000000000000000000 ) ) ;
#249 = CALENDAR_DATE ( 2022, 20, 6 ) ;
#250 = ADVANCED_FACE ( 'NONE', ( #127 ), #190, .F. ) ;
#251 = CARTESIAN_POINT ( 'NONE',  ( -1.500000000000000222, 0.000000000000000000, 163.0000000000000000 ) ) ;
#252 = DIRECTION ( 'NONE',  ( 1.000000000000000000, 0.000000000000000000, -0.000000000000000000 ) ) ;
#253 =( NAMED_UNIT ( * ) PLANE_ANGLE_UNIT ( ) SI_UNIT ( $, .RADIAN. ) );
#254 = DIRECTION ( 'NONE',  ( 1.000000000000000000, 0.000000000000000000, 0.000000000000000000 ) ) ;
#255 = ADVANCED_FACE ( 'NONE', ( #11 ), #128, .T. ) ;
#256 = ORIENTED_EDGE ( 'NONE', *, *, #134, .F. ) ;
#257 = DIRECTION ( 'NONE',  ( 0.000000000000000000, 0.000000000000000000, -1.000000000000000000 ) ) ;
#258 = ORIENTED_EDGE ( 'NONE', *, *, #78, .T. ) ;
#259 = AXIS2_PLACEMENT_3D ( 'NONE', #139, #199, #193 ) ;
#260 = ORIENTED_EDGE ( 'NONE', *, *, #174, .T. ) ;
#261 = VERTEX_POINT ( 'NONE', #85 ) ;
#262 = CARTESIAN_POINT ( 'NONE',  ( 1.500000000000000222, 1.836970198721030181E-16, 3.200000000000008171 ) ) ;
#263 = EDGE_CURVE ( 'NONE', #46, #131, #167, .T. ) ;
#264 = DIRECTION ( 'NONE',  ( -0.000000000000000000, -0.000000000000000000, -1.000000000000000000 ) ) ;
#265 = ORIENTED_EDGE ( 'NONE', *, *, #263, .F. ) ;
#266 = EDGE_CURVE ( 'NONE', #131, #138, #99, .T. ) ;
#267 = EDGE_LOOP ( 'NONE', ( #283, #107, #238, #135 ) ) ;
#268 = LINE ( 'NONE', #96, #33 ) ;
#269 = PERSON_AND_ORGANIZATION ( #72, #177 ) ;
#270 = AXIS2_PLACEMENT_3D ( 'NONE', #76, #140, #79 ) ;
#271 = CARTESIAN_POINT ( 'NONE',  ( -1.700000000000000400, 2.081899558550500773E-16, 3.200000000000008171 ) ) ;
#272 = VECTOR ( 'NONE', #180, 1000.000000000000000 ) ;
#273 = DIRECTION ( 'NONE',  ( 0.000000000000000000, 0.000000000000000000, 1.000000000000000000 ) ) ;
#274 = DIRECTION ( 'NONE',  ( 0.000000000000000000, 0.000000000000000000, 1.000000000000000000 ) ) ;
#275 = CC_DESIGN_APPROVAL ( #92, ( #103 ) ) ;
#276 = DATE_AND_TIME ( #157, #214 ) ;
#277 = VERTEX_POINT ( 'NONE', #44 ) ;
#278 = ORIENTED_EDGE ( 'NONE', *, *, #300, .T. ) ;
#279 = AXIS2_PLACEMENT_3D ( 'NONE', #2, #100, #58 ) ;
#280 = APPROVAL ( #61, 'NEURÈENÝ' ) ;
#281 = AXIS2_PLACEMENT_3D ( 'NONE', #8, #65, #146 ) ;
#282 = ORIENTED_EDGE ( 'NONE', *, *, #305, .F. ) ;
#283 = ORIENTED_EDGE ( 'NONE', *, *, #32, .F. ) ;
#284 = DIRECTION ( 'NONE',  ( -1.000000000000000000, 0.000000000000000000, 0.000000000000000000 ) ) ;
#285 = CARTESIAN_POINT ( 'NONE',  ( 0.000000000000000000, 0.000000000000000000, 163.0000000000000000 ) ) ;
#286 = COORDINATED_UNIVERSAL_TIME_OFFSET ( 1, 0, .AHEAD. ) ;
#287 = CARTESIAN_POINT ( 'NONE',  ( 3.000000000000000444, 3.673940397442060361E-16, 3.000000000000000000 ) ) ;
#288 = LOCAL_TIME ( 12, 16, 26.00000000000000000, #152 ) ;
#289 = FACE_BOUND ( 'NONE', #22, .T. ) ;
#290 = PRODUCT ( '8cf8', '8cf8', '', ( #245 ) ) ;
#291 = CARTESIAN_POINT ( 'NONE',  ( 1.700000000000000400, 0.000000000000000000, 3.000000000000004441 ) ) ;
#292 = PERSON_AND_ORGANIZATION ( #72, #177 ) ;
#293 = AXIS2_PLACEMENT_3D ( 'NONE', #24, #120, #115 ) ;
#294 = DATE_AND_TIME ( #84, #288 ) ;
#295 = EDGE_CURVE ( 'NONE', #89, #46, #59, .T. ) ;
#296 = SECURITY_CLASSIFICATION_LEVEL ( 'unclassified' ) ;
#297 = LINE ( 'NONE', #15, #105 ) ;
#298 = AXIS2_PLACEMENT_3D ( 'NONE', #271, #7, #64 ) ;
#299 = ORIENTED_EDGE ( 'NONE', *, *, #295, .T. ) ;
#300 = EDGE_CURVE ( 'NONE', #20, #277, #80, .T. ) ;
#301 = EDGE_LOOP ( 'NONE', ( #265, #211, #161, #231 ) ) ;
#302 = ORIENTED_EDGE ( 'NONE', *, *, #305, .T. ) ;
#303 = SECURITY_CLASSIFICATION ( '', '', #296 ) ;
#304 = ORIENTED_EDGE ( 'NONE', *, *, #236, .F. ) ;
#305 = EDGE_CURVE ( 'NONE', #277, #187, #132, .T. ) ;
#306 = DIRECTION ( 'NONE',  ( 0.000000000000000000, 0.000000000000000000, 1.000000000000000000 ) ) ;
#307 = AXIS2_PLACEMENT_3D ( 'NONE', #23, #31, #240 ) ;
ENDSEC;
END-ISO-10303-21;
