ISO-10303-21;
HEADER;
FILE_DESCRIPTION (( 'STEP AP203' ),
    '1' );
FILE_NAME ('d730.STEP',
    '2022-06-20T09:56:43',
    ( '' ),
    ( '' ),
    'SwSTEP 2.0',
    'SolidWorks 2019',
    '' );
FILE_SCHEMA (( 'CONFIG_CONTROL_DESIGN' ));
ENDSEC;

DATA;
#1 = FACE_OUTER_BOUND ( 'NONE', #180, .T. ) ;
#2 = AXIS2_PLACEMENT_3D ( 'NONE', #71, #166, #164 ) ;
#3 = CARTESIAN_POINT ( 'NONE',  ( 0.000000000000000000, 0.000000000000000000, 0.000000000000000000 ) ) ;
#4 = CC_DESIGN_PERSON_AND_ORGANIZATION_ASSIGNMENT ( #148, #203, ( #118 ) ) ;
#5 = DIRECTION ( 'NONE',  ( -0.000000000000000000, -0.000000000000000000, -1.000000000000000000 ) ) ;
#6 = DIRECTION ( 'NONE',  ( -0.000000000000000000, -0.000000000000000000, -1.000000000000000000 ) ) ;
#7 = ADVANCED_FACE ( 'NONE', ( #48 ), #306, .T. ) ;
#8 = APPROVAL_ROLE ( '' ) ;
#9 = ORIENTED_EDGE ( 'NONE', *, *, #44, .T. ) ;
#10 = CALENDAR_DATE ( 2022, 20, 6 ) ;
#11 = VERTEX_POINT ( 'NONE', #305 ) ;
#12 = AXIS2_PLACEMENT_3D ( 'NONE', #67, #69, #50 ) ;
#13 = DATE_AND_TIME ( #75, #97 ) ;
#14 = EDGE_LOOP ( 'NONE', ( #179, #198 ) ) ;
#15 = MANIFOLD_SOLID_BREP ( 'Zaoblit1', #46 ) ;
#16 = PERSON_AND_ORGANIZATION ( #153, #216 ) ;
#17 = ORIENTED_EDGE ( 'NONE', *, *, #215, .T. ) ;
#18 = AXIS2_PLACEMENT_3D ( 'NONE', #279, #233, #132 ) ;
#19 = ADVANCED_BREP_SHAPE_REPRESENTATION ( 'd730', ( #15, #60 ), #291 ) ;
#20 = UNCERTAINTY_MEASURE_WITH_UNIT (LENGTH_MEASURE( 1.000000000000000082E-05 ), #292, 'distance_accuracy_value', 'NONE');
#21 = ORIENTED_EDGE ( 'NONE', *, *, #105, .T. ) ;
#22 = DIRECTION ( 'NONE',  ( 1.000000000000000000, 0.000000000000000000, 0.000000000000000000 ) ) ;
#23 = CARTESIAN_POINT ( 'NONE',  ( -6.000000000000000888, 0.000000000000000000, 5.000000000000000000 ) ) ;
#24 = CARTESIAN_POINT ( 'NONE',  ( -3.100000000000000089, 0.000000000000000000, 5.200000000000009948 ) ) ;
#25 = VECTOR ( 'NONE', #6, 1000.000000000000000 ) ;
#26 = ORIENTED_EDGE ( 'NONE', *, *, #226, .F. ) ;
#27 = PLANE ( 'NONE',  #74 ) ;
#28 = CARTESIAN_POINT ( 'NONE',  ( 6.000000000000000888, 7.347880794884120722E-16, 5.000000000000000000 ) ) ;
#29 = CARTESIAN_POINT ( 'NONE',  ( 0.000000000000000000, 0.000000000000000000, 5.000000000000000000 ) ) ;
#30 = CARTESIAN_POINT ( 'NONE',  ( 0.000000000000000000, 0.000000000000000000, 5.200000000000009948 ) ) ;
#31 = DIRECTION ( 'NONE',  ( -0.000000000000000000, -0.000000000000000000, -1.000000000000000000 ) ) ;
#32 = ADVANCED_FACE ( 'NONE', ( #1 ), #54, .F. ) ;
#33 = LOCAL_TIME ( 11, 56, 43.00000000000000000, #99 ) ;
#34 = DIRECTION ( 'NONE',  ( 1.000000000000000000, 0.000000000000000000, 0.000000000000000000 ) ) ;
#35 = EDGE_CURVE ( 'NONE', #57, #177, #89, .T. ) ;
#36 = VERTEX_POINT ( 'NONE', #133 ) ;
#37 = AXIS2_PLACEMENT_3D ( 'NONE', #91, #64, #62 ) ;
#38 = ORIENTED_EDGE ( 'NONE', *, *, #146, .T. ) ;
#39 = COORDINATED_UNIVERSAL_TIME_OFFSET ( 1, 0, .AHEAD. ) ;
#40 = EDGE_CURVE ( 'NONE', #36, #11, #258, .T. ) ;
#41 = PERSON_AND_ORGANIZATION_ROLE ( 'creator' ) ;
#42 = VERTEX_POINT ( 'NONE', #108 ) ;
#43 = DIRECTION ( 'NONE',  ( -1.000000000000000000, 0.000000000000000000, 0.000000000000000000 ) ) ;
#44 = EDGE_CURVE ( 'NONE', #42, #177, #304, .T. ) ;
#45 = EDGE_LOOP ( 'NONE', ( #302, #200 ) ) ;
#46 = CLOSED_SHELL ( 'NONE', ( #214, #287, #68, #7, #114, #217, #274, #173, #32 ) ) ;
#47 = DIRECTION ( 'NONE',  ( 0.000000000000000000, 0.000000000000000000, 1.000000000000000000 ) ) ;
#48 = FACE_OUTER_BOUND ( 'NONE', #84, .T. ) ;
#49 = PLANE ( 'NONE',  #239 ) ;
#50 = DIRECTION ( 'NONE',  ( -1.000000000000000000, 1.224646799147353207E-16, 0.000000000000000000 ) ) ;
#51 = CIRCLE ( 'NONE', #90, 3.100000000000000089 ) ;
#52 = CYLINDRICAL_SURFACE ( 'NONE', #125, 3.100000000000000089 ) ;
#53 =( NAMED_UNIT ( * ) SI_UNIT ( $, .STERADIAN. ) SOLID_ANGLE_UNIT ( ) );
#54 = TOROIDAL_SURFACE ( 'NONE', #159, 3.299999999999999822, 0.2000000000000000111 ) ;
#55 = LINE ( 'NONE', #286, #141 ) ;
#56 = APPROVAL ( #178, 'NEURÈENÝ' ) ;
#57 = VERTEX_POINT ( 'NONE', #23 ) ;
#58 = PERSON_AND_ORGANIZATION ( #153, #216 ) ;
#59 = ORIENTED_EDGE ( 'NONE', *, *, #229, .F. ) ;
#60 = AXIS2_PLACEMENT_3D ( 'NONE', #3, #95, #34 ) ;
#61 = DATE_AND_TIME ( #271, #85 ) ;
#62 = DIRECTION ( 'NONE',  ( 1.000000000000000000, 0.000000000000000000, 0.000000000000000000 ) ) ;
#63 = CARTESIAN_POINT ( 'NONE',  ( -6.000000000000000888, 0.000000000000000000, 0.000000000000000000 ) ) ;
#64 = DIRECTION ( 'NONE',  ( 0.000000000000000000, 0.000000000000000000, 1.000000000000000000 ) ) ;
#65 = CARTESIAN_POINT ( 'NONE',  ( 0.000000000000000000, 0.000000000000000000, 5.000000000000000000 ) ) ;
#66 = FACE_OUTER_BOUND ( 'NONE', #150, .T. ) ;
#67 = CARTESIAN_POINT ( 'NONE',  ( -3.299999999999999822, 4.041334437186265510E-16, 5.200000000000009948 ) ) ;
#68 = ADVANCED_FACE ( 'NONE', ( #66 ), #112, .T. ) ;
#69 = DIRECTION ( 'NONE',  ( 1.224646799147353207E-16, 1.000000000000000000, -0.000000000000000000 ) ) ;
#70 = AXIS2_PLACEMENT_3D ( 'NONE', #280, #156, #260 ) ;
#71 = CARTESIAN_POINT ( 'NONE',  ( 0.000000000000000000, 0.000000000000000000, 5.200000000000009948 ) ) ;
#72 = AXIS2_PLACEMENT_3D ( 'NONE', #242, #31, #119 ) ;
#73 = DIRECTION ( 'NONE',  ( 0.000000000000000000, 0.000000000000000000, 1.000000000000000000 ) ) ;
#74 = AXIS2_PLACEMENT_3D ( 'NONE', #209, #307, #130 ) ;
#75 = CALENDAR_DATE ( 2022, 20, 6 ) ;
#76 = AXIS2_PLACEMENT_3D ( 'NONE', #29, #284, #169 ) ;
#77 = LOCAL_TIME ( 11, 56, 43.00000000000000000, #243 ) ;
#78 = ORIENTED_EDGE ( 'NONE', *, *, #40, .T. ) ;
#79 = SHAPE_DEFINITION_REPRESENTATION ( #154, #19 ) ;
#80 = EDGE_LOOP ( 'NONE', ( #246, #123, #297, #101 ) ) ;
#81 = VECTOR ( 'NONE', #259, 1000.000000000000000 ) ;
#82 = ORIENTED_EDGE ( 'NONE', *, *, #171, .F. ) ;
#83 = DATE_AND_TIME ( #100, #33 ) ;
#84 = EDGE_LOOP ( 'NONE', ( #59, #222, #152, #21 ) ) ;
#85 = LOCAL_TIME ( 11, 56, 43.00000000000000000, #39 ) ;
#86 = ORIENTED_EDGE ( 'NONE', *, *, #283, .T. ) ;
#87 = DIRECTION ( 'NONE',  ( 1.000000000000000000, 0.000000000000000000, -0.000000000000000000 ) ) ;
#88 = CC_DESIGN_PERSON_AND_ORGANIZATION_ASSIGNMENT ( #197, #127, ( #285 ) ) ;
#89 = LINE ( 'NONE', #184, #81 ) ;
#90 = AXIS2_PLACEMENT_3D ( 'NONE', #30, #237, #265 ) ;
#91 = CARTESIAN_POINT ( 'NONE',  ( 0.000000000000000000, 0.000000000000000000, 165.0000000000000000 ) ) ;
#92 = DIRECTION ( 'NONE',  ( 0.000000000000000000, 0.000000000000000000, 1.000000000000000000 ) ) ;
#93 = DIRECTION ( 'NONE',  ( 1.000000000000000000, 0.000000000000000000, 0.000000000000000000 ) ) ;
#94 = CIRCLE ( 'NONE', #76, 3.299999999999999822 ) ;
#95 = DIRECTION ( 'NONE',  ( 0.000000000000000000, 0.000000000000000000, 1.000000000000000000 ) ) ;
#96 = CARTESIAN_POINT ( 'NONE',  ( 3.100000000000000089, 3.796405077356794918E-16, 165.0000000000000000 ) ) ;
#97 = LOCAL_TIME ( 11, 56, 43.00000000000000000, #149 ) ;
#98 = DIRECTION ( 'NONE',  ( 1.000000000000000000, 0.000000000000000000, -0.000000000000000000 ) ) ;
#99 = COORDINATED_UNIVERSAL_TIME_OFFSET ( 1, 0, .AHEAD. ) ;
#100 = CALENDAR_DATE ( 2022, 20, 6 ) ;
#101 = ORIENTED_EDGE ( 'NONE', *, *, #268, .T. ) ;
#102 = DATE_TIME_ROLE ( 'creation_date' ) ;
#103 = VERTEX_POINT ( 'NONE', #210 ) ;
#104 = APPROVAL_ROLE ( '' ) ;
#105 = EDGE_CURVE ( 'NONE', #177, #42, #186, .T. ) ;
#106 = ORIENTED_EDGE ( 'NONE', *, *, #229, .T. ) ;
#107 = CIRCLE ( 'NONE', #12, 0.2000000000000000944 ) ;
#108 = CARTESIAN_POINT ( 'NONE',  ( 6.000000000000000888, 7.347880794884120722E-16, 0.000000000000000000 ) ) ;
#109 = CARTESIAN_POINT ( 'NONE',  ( -3.100000000000000089, 0.000000000000000000, 165.0000000000000000 ) ) ;
#110 = DIRECTION ( 'NONE',  ( 0.000000000000000000, -1.000000000000000000, 0.000000000000000000 ) ) ;
#111 = APPROVAL_PERSON_ORGANIZATION ( #266, #232, #104 ) ;
#112 = CYLINDRICAL_SURFACE ( 'NONE', #170, 6.000000000000000888 ) ;
#113 = DIRECTION ( 'NONE',  ( -0.000000000000000000, -0.000000000000000000, -1.000000000000000000 ) ) ;
#114 = ADVANCED_FACE ( 'NONE', ( #236, #187 ), #27, .T. ) ;
#115 = AXIS2_PLACEMENT_3D ( 'NONE', #158, #230, #43 ) ;
#116 = TOROIDAL_SURFACE ( 'NONE', #295, 3.299999999999999822, 0.2000000000000000111 ) ;
#117 =( NAMED_UNIT ( * ) PLANE_ANGLE_UNIT ( ) SI_UNIT ( $, .RADIAN. ) );
#118 = PRODUCT_DEFINITION ( 'NEZNÁMÝ', '', #136, #272 ) ;
#119 = DIRECTION ( 'NONE',  ( -1.000000000000000000, 0.000000000000000000, 0.000000000000000000 ) ) ;
#120 = CC_DESIGN_APPROVAL ( #232, ( #285 ) ) ;
#121 = VERTEX_POINT ( 'NONE', #109 ) ;
#122 = COORDINATED_UNIVERSAL_TIME_OFFSET ( 1, 0, .AHEAD. ) ;
#123 = ORIENTED_EDGE ( 'NONE', *, *, #129, .F. ) ;
#124 = APPROVAL_DATE_TIME ( #61, #56 ) ;
#125 = AXIS2_PLACEMENT_3D ( 'NONE', #191, #190, #142 ) ;
#126 = ORIENTED_EDGE ( 'NONE', *, *, #283, .F. ) ;
#127 = PERSON_AND_ORGANIZATION_ROLE ( 'classification_officer' ) ;
#128 = ORIENTED_EDGE ( 'NONE', *, *, #35, .F. ) ;
#129 = EDGE_CURVE ( 'NONE', #121, #298, #165, .T. ) ;
#130 = DIRECTION ( 'NONE',  ( 1.000000000000000000, 0.000000000000000000, -0.000000000000000000 ) ) ;
#131 = CIRCLE ( 'NONE', #227, 6.000000000000000888 ) ;
#132 = DIRECTION ( 'NONE',  ( 1.000000000000000000, 0.000000000000000000, 0.000000000000000000 ) ) ;
#133 = CARTESIAN_POINT ( 'NONE',  ( 3.100000000000000089, 3.796405077356794918E-16, 5.200000000000009948 ) ) ;
#134 = CC_DESIGN_PERSON_AND_ORGANIZATION_ASSIGNMENT ( #58, #41, ( #136 ) ) ;
#135 = CARTESIAN_POINT ( 'NONE',  ( 3.299999999999999822, 0.000000000000000000, 5.200000000000009948 ) ) ;
#136 = PRODUCT_DEFINITION_FORMATION_WITH_SPECIFIED_SOURCE ( 'LIBOVOLNÝ', '', #183, .NOT_KNOWN. ) ;
#137 = DIRECTION ( 'NONE',  ( 0.000000000000000000, 0.000000000000000000, 1.000000000000000000 ) ) ;
#138 = EDGE_CURVE ( 'NONE', #298, #121, #207, .T. ) ;
#139 = APPLICATION_PROTOCOL_DEFINITION ( 'international standard', 'config_control_design', 1994, #204 ) ;
#140 = CYLINDRICAL_SURFACE ( 'NONE', #72, 3.100000000000000089 ) ;
#141 = VECTOR ( 'NONE', #238, 1000.000000000000000 ) ;
#142 = DIRECTION ( 'NONE',  ( -1.000000000000000000, 0.000000000000000000, 0.000000000000000000 ) ) ;
#143 = LINE ( 'NONE', #262, #250 ) ;
#144 = CARTESIAN_POINT ( 'NONE',  ( 0.000000000000000000, 0.000000000000000000, 5.200000000000009948 ) ) ;
#145 = APPROVAL_ROLE ( '' ) ;
#146 = EDGE_CURVE ( 'NONE', #103, #11, #192, .T. ) ;
#147 = EDGE_LOOP ( 'NONE', ( #181, #253 ) ) ;
#148 = PERSON_AND_ORGANIZATION ( #153, #216 ) ;
#149 = COORDINATED_UNIVERSAL_TIME_OFFSET ( 1, 0, .AHEAD. ) ;
#150 = EDGE_LOOP ( 'NONE', ( #82, #106, #9, #128 ) ) ;
#151 = SECURITY_CLASSIFICATION_LEVEL ( 'unclassified' ) ;
#152 = ORIENTED_EDGE ( 'NONE', *, *, #35, .T. ) ;
#153 = PERSON ( 'NEURÈENÝ', 'NEURÈENÝ', 'NEURÈENÝ', ('NEURÈENÝ'), ('NEURÈENÝ'), ('NEURÈENÝ') ) ;
#154 = PRODUCT_DEFINITION_SHAPE ( 'NONE', 'NONE',  #118 ) ;
#155 = VERTEX_POINT ( 'NONE', #24 ) ;
#156 = DIRECTION ( 'NONE',  ( 0.000000000000000000, 0.000000000000000000, 1.000000000000000000 ) ) ;
#157 = EDGE_LOOP ( 'NONE', ( #300, #17, #86, #26 ) ) ;
#158 = CARTESIAN_POINT ( 'NONE',  ( 0.000000000000000000, 0.000000000000000000, 5.000000000000000000 ) ) ;
#159 = AXIS2_PLACEMENT_3D ( 'NONE', #256, #47, #22 ) ;
#160 = CARTESIAN_POINT ( 'NONE',  ( 0.000000000000000000, 0.000000000000000000, 5.000000000000000000 ) ) ;
#161 = DIRECTION ( 'NONE',  ( 1.000000000000000000, 0.000000000000000000, 0.000000000000000000 ) ) ;
#162 = CC_DESIGN_APPROVAL ( #249, ( #136 ) ) ;
#163 = EDGE_CURVE ( 'NONE', #57, #294, #220, .T. ) ;
#164 = DIRECTION ( 'NONE',  ( 1.000000000000000000, 0.000000000000000000, 0.000000000000000000 ) ) ;
#165 = CIRCLE ( 'NONE', #37, 3.100000000000000089 ) ;
#166 = DIRECTION ( 'NONE',  ( 0.000000000000000000, 0.000000000000000000, 1.000000000000000000 ) ) ;
#167 = CIRCLE ( 'NONE', #2, 3.100000000000000089 ) ;
#168 = CARTESIAN_POINT ( 'NONE',  ( 3.100000000000000089, 3.796405077356794918E-16, 165.0000000000000000 ) ) ;
#169 = DIRECTION ( 'NONE',  ( 1.000000000000000000, 0.000000000000000000, 0.000000000000000000 ) ) ;
#170 = AXIS2_PLACEMENT_3D ( 'NONE', #257, #113, #182 ) ;
#171 = EDGE_CURVE ( 'NONE', #294, #57, #131, .T. ) ;
#172 = PERSON_AND_ORGANIZATION_ROLE ( 'design_owner' ) ;
#173 = ADVANCED_FACE ( 'NONE', ( #188 ), #228, .T. ) ;
#174 = ORIENTED_EDGE ( 'NONE', *, *, #199, .T. ) ;
#175 = CC_DESIGN_DATE_AND_TIME_ASSIGNMENT ( #13, #102, ( #118 ) ) ;
#176 = APPROVAL_DATE_TIME ( #83, #232 ) ;
#177 = VERTEX_POINT ( 'NONE', #63 ) ;
#178 = APPROVAL_STATUS ( 'not_yet_approved' ) ;
#179 = ORIENTED_EDGE ( 'NONE', *, *, #163, .T. ) ;
#180 = EDGE_LOOP ( 'NONE', ( #273, #126, #78, #269 ) ) ;
#181 = ORIENTED_EDGE ( 'NONE', *, *, #105, .F. ) ;
#182 = DIRECTION ( 'NONE',  ( -1.000000000000000000, 0.000000000000000000, 0.000000000000000000 ) ) ;
#183 = PRODUCT ( 'd730', 'd730', '', ( #251 ) ) ;
#184 = CARTESIAN_POINT ( 'NONE',  ( -6.000000000000000888, 0.000000000000000000, 5.000000000000000000 ) ) ;
#185 = DIRECTION ( 'NONE',  ( 1.000000000000000000, 0.000000000000000000, 0.000000000000000000 ) ) ;
#186 = CIRCLE ( 'NONE', #211, 6.000000000000000888 ) ;
#187 = FACE_OUTER_BOUND ( 'NONE', #14, .T. ) ;
#188 = FACE_OUTER_BOUND ( 'NONE', #45, .T. ) ;
#189 = LOCAL_TIME ( 11, 56, 43.00000000000000000, #122 ) ;
#190 = DIRECTION ( 'NONE',  ( -0.000000000000000000, -0.000000000000000000, -1.000000000000000000 ) ) ;
#191 = CARTESIAN_POINT ( 'NONE',  ( 0.000000000000000000, 0.000000000000000000, 165.0000000000000000 ) ) ;
#192 = CIRCLE ( 'NONE', #278, 3.299999999999999822 ) ;
#193 = CARTESIAN_POINT ( 'NONE',  ( 0.000000000000000000, 0.000000000000000000, 0.000000000000000000 ) ) ;
#194 = APPROVAL_PERSON_ORGANIZATION ( #299, #56, #145 ) ;
#195 = FACE_OUTER_BOUND ( 'NONE', #147, .T. ) ;
#196 = DATE_TIME_ROLE ( 'classification_date' ) ;
#197 = PERSON_AND_ORGANIZATION ( #153, #216 ) ;
#198 = ORIENTED_EDGE ( 'NONE', *, *, #171, .T. ) ;
#199 = EDGE_CURVE ( 'NONE', #11, #103, #94, .T. ) ;
#200 = ORIENTED_EDGE ( 'NONE', *, *, #138, .T. ) ;
#201 = APPROVAL_DATE_TIME ( #275, #249 ) ;
#202 = AXIS2_PLACEMENT_3D ( 'NONE', #135, #110, #212 ) ;
#203 = PERSON_AND_ORGANIZATION_ROLE ( 'creator' ) ;
#204 = APPLICATION_CONTEXT ( 'configuration controlled 3d designs of mechanical parts and assemblies' ) ;
#205 = EDGE_LOOP ( 'NONE', ( #219, #224, #270, #276 ) ) ;
#206 = CARTESIAN_POINT ( 'NONE',  ( 0.000000000000000000, 0.000000000000000000, 165.0000000000000000 ) ) ;
#207 = CIRCLE ( 'NONE', #70, 3.100000000000000089 ) ;
#208 = DIRECTION ( 'NONE',  ( -0.000000000000000000, -0.000000000000000000, -1.000000000000000000 ) ) ;
#209 = CARTESIAN_POINT ( 'NONE',  ( 0.000000000000000000, 0.000000000000000000, 5.000000000000000000 ) ) ;
#210 = CARTESIAN_POINT ( 'NONE',  ( -3.299999999999999822, 4.041334437186265510E-16, 5.000000000000005329 ) ) ;
#211 = AXIS2_PLACEMENT_3D ( 'NONE', #254, #231, #185 ) ;
#212 = DIRECTION ( 'NONE',  ( 0.000000000000000000, 0.000000000000000000, -1.000000000000000000 ) ) ;
#213 = FACE_OUTER_BOUND ( 'NONE', #80, .T. ) ;
#214 = ADVANCED_FACE ( 'NONE', ( #241 ), #116, .F. ) ;
#215 = EDGE_CURVE ( 'NONE', #298, #36, #290, .T. ) ;
#216 = ORGANIZATION ( 'NEURÈENÝ', 'NEURÈENÝ', '' ) ;
#217 = ADVANCED_FACE ( 'NONE', ( #195 ), #49, .F. ) ;
#218 = APPLICATION_PROTOCOL_DEFINITION ( 'international standard', 'config_control_design', 1994, #223 ) ;
#219 = ORIENTED_EDGE ( 'NONE', *, *, #268, .F. ) ;
#220 = CIRCLE ( 'NONE', #234, 6.000000000000000888 ) ;
#221 = CC_DESIGN_SECURITY_CLASSIFICATION ( #285, ( #136 ) ) ;
#222 = ORIENTED_EDGE ( 'NONE', *, *, #163, .F. ) ;
#223 = APPLICATION_CONTEXT ( 'configuration controlled 3d designs of mechanical parts and assemblies' ) ;
#224 = ORIENTED_EDGE ( 'NONE', *, *, #247, .T. ) ;
#225 = DATE_AND_TIME ( #248, #77 ) ;
#226 = EDGE_CURVE ( 'NONE', #121, #155, #143, .T. ) ;
#227 = AXIS2_PLACEMENT_3D ( 'NONE', #281, #137, #161 ) ;
#228 = PLANE ( 'NONE',  #255 ) ;
#229 = EDGE_CURVE ( 'NONE', #294, #42, #55, .T. ) ;
#230 = DIRECTION ( 'NONE',  ( -0.000000000000000000, -0.000000000000000000, -1.000000000000000000 ) ) ;
#231 = DIRECTION ( 'NONE',  ( 0.000000000000000000, 0.000000000000000000, 1.000000000000000000 ) ) ;
#232 = APPROVAL ( #267, 'NEURÈENÝ' ) ;
#233 = DIRECTION ( 'NONE',  ( 0.000000000000000000, 0.000000000000000000, 1.000000000000000000 ) ) ;
#234 = AXIS2_PLACEMENT_3D ( 'NONE', #160, #92, #277 ) ;
#235 = CC_DESIGN_PERSON_AND_ORGANIZATION_ASSIGNMENT ( #296, #172, ( #183 ) ) ;
#236 = FACE_BOUND ( 'NONE', #244, .T. ) ;
#237 = DIRECTION ( 'NONE',  ( 0.000000000000000000, 0.000000000000000000, 1.000000000000000000 ) ) ;
#238 = DIRECTION ( 'NONE',  ( -0.000000000000000000, -0.000000000000000000, -1.000000000000000000 ) ) ;
#239 = AXIS2_PLACEMENT_3D ( 'NONE', #193, #73, #98 ) ;
#240 = FACE_OUTER_BOUND ( 'NONE', #157, .T. ) ;
#241 = FACE_OUTER_BOUND ( 'NONE', #205, .T. ) ;
#242 = CARTESIAN_POINT ( 'NONE',  ( 0.000000000000000000, 0.000000000000000000, 165.0000000000000000 ) ) ;
#243 = COORDINATED_UNIVERSAL_TIME_OFFSET ( 1, 0, .AHEAD. ) ;
#244 = EDGE_LOOP ( 'NONE', ( #174, #38 ) ) ;
#245 = PERSON_AND_ORGANIZATION_ROLE ( 'design_supplier' ) ;
#246 = ORIENTED_EDGE ( 'NONE', *, *, #215, .F. ) ;
#247 = EDGE_CURVE ( 'NONE', #155, #103, #107, .T. ) ;
#248 = CALENDAR_DATE ( 2022, 20, 6 ) ;
#249 = APPROVAL ( #252, 'NEURÈENÝ' ) ;
#250 = VECTOR ( 'NONE', #5, 1000.000000000000000 ) ;
#251 = MECHANICAL_CONTEXT ( 'NONE', #204, 'mechanical' ) ;
#252 = APPROVAL_STATUS ( 'not_yet_approved' ) ;
#253 = ORIENTED_EDGE ( 'NONE', *, *, #44, .F. ) ;
#254 = CARTESIAN_POINT ( 'NONE',  ( 0.000000000000000000, 0.000000000000000000, 0.000000000000000000 ) ) ;
#255 = AXIS2_PLACEMENT_3D ( 'NONE', #206, #303, #87 ) ;
#256 = CARTESIAN_POINT ( 'NONE',  ( 0.000000000000000000, 0.000000000000000000, 5.200000000000009948 ) ) ;
#257 = CARTESIAN_POINT ( 'NONE',  ( 0.000000000000000000, 0.000000000000000000, 5.000000000000000000 ) ) ;
#258 = CIRCLE ( 'NONE', #202, 0.1999999999999996503 ) ;
#259 = DIRECTION ( 'NONE',  ( -0.000000000000000000, -0.000000000000000000, -1.000000000000000000 ) ) ;
#260 = DIRECTION ( 'NONE',  ( 1.000000000000000000, 0.000000000000000000, 0.000000000000000000 ) ) ;
#261 = APPROVAL_PERSON_ORGANIZATION ( #293, #249, #8 ) ;
#262 = CARTESIAN_POINT ( 'NONE',  ( -3.100000000000000089, 0.000000000000000000, 165.0000000000000000 ) ) ;
#263 = DIRECTION ( 'NONE',  ( 1.000000000000000000, 0.000000000000000000, 0.000000000000000000 ) ) ;
#264 = CC_DESIGN_DATE_AND_TIME_ASSIGNMENT ( #225, #196, ( #285 ) ) ;
#265 = DIRECTION ( 'NONE',  ( 1.000000000000000000, 0.000000000000000000, 0.000000000000000000 ) ) ;
#266 = PERSON_AND_ORGANIZATION ( #153, #216 ) ;
#267 = APPROVAL_STATUS ( 'not_yet_approved' ) ;
#268 = EDGE_CURVE ( 'NONE', #155, #36, #51, .T. ) ;
#269 = ORIENTED_EDGE ( 'NONE', *, *, #146, .F. ) ;
#270 = ORIENTED_EDGE ( 'NONE', *, *, #199, .F. ) ;
#271 = CALENDAR_DATE ( 2022, 20, 6 ) ;
#272 = DESIGN_CONTEXT ( 'detailed design', #223, 'design' ) ;
#273 = ORIENTED_EDGE ( 'NONE', *, *, #247, .F. ) ;
#274 = ADVANCED_FACE ( 'NONE', ( #213 ), #52, .T. ) ;
#275 = DATE_AND_TIME ( #10, #189 ) ;
#276 = ORIENTED_EDGE ( 'NONE', *, *, #40, .F. ) ;
#277 = DIRECTION ( 'NONE',  ( 1.000000000000000000, 0.000000000000000000, 0.000000000000000000 ) ) ;
#278 = AXIS2_PLACEMENT_3D ( 'NONE', #65, #208, #93 ) ;
#279 = CARTESIAN_POINT ( 'NONE',  ( 0.000000000000000000, 0.000000000000000000, 0.000000000000000000 ) ) ;
#280 = CARTESIAN_POINT ( 'NONE',  ( 0.000000000000000000, 0.000000000000000000, 165.0000000000000000 ) ) ;
#281 = CARTESIAN_POINT ( 'NONE',  ( 0.000000000000000000, 0.000000000000000000, 5.000000000000000000 ) ) ;
#282 = CC_DESIGN_PERSON_AND_ORGANIZATION_ASSIGNMENT ( #16, #245, ( #136 ) ) ;
#283 = EDGE_CURVE ( 'NONE', #36, #155, #167, .T. ) ;
#284 = DIRECTION ( 'NONE',  ( -0.000000000000000000, -0.000000000000000000, -1.000000000000000000 ) ) ;
#285 = SECURITY_CLASSIFICATION ( '', '', #151 ) ;
#286 = CARTESIAN_POINT ( 'NONE',  ( 6.000000000000000888, 7.347880794884120722E-16, 5.000000000000000000 ) ) ;
#287 = ADVANCED_FACE ( 'NONE', ( #240 ), #140, .T. ) ;
#288 = DIRECTION ( 'NONE',  ( 0.000000000000000000, 0.000000000000000000, 1.000000000000000000 ) ) ;
#289 = PRODUCT_RELATED_PRODUCT_CATEGORY ( 'detail', '', ( #183 ) ) ;
#290 = LINE ( 'NONE', #96, #25 ) ;
#291 =( GEOMETRIC_REPRESENTATION_CONTEXT ( 3 ) GLOBAL_UNCERTAINTY_ASSIGNED_CONTEXT ( ( #20 ) ) GLOBAL_UNIT_ASSIGNED_CONTEXT ( ( #292, #117, #53 ) ) REPRESENTATION_CONTEXT ( 'NONE', 'WORKASPACE' ) );
#292 =( LENGTH_UNIT ( ) NAMED_UNIT ( * ) SI_UNIT ( .MILLI., .METRE. ) );
#293 = PERSON_AND_ORGANIZATION ( #153, #216 ) ;
#294 = VERTEX_POINT ( 'NONE', #28 ) ;
#295 = AXIS2_PLACEMENT_3D ( 'NONE', #144, #288, #263 ) ;
#296 = PERSON_AND_ORGANIZATION ( #153, #216 ) ;
#297 = ORIENTED_EDGE ( 'NONE', *, *, #226, .T. ) ;
#298 = VERTEX_POINT ( 'NONE', #168 ) ;
#299 = PERSON_AND_ORGANIZATION ( #153, #216 ) ;
#300 = ORIENTED_EDGE ( 'NONE', *, *, #138, .F. ) ;
#301 = CC_DESIGN_APPROVAL ( #56, ( #118 ) ) ;
#302 = ORIENTED_EDGE ( 'NONE', *, *, #129, .T. ) ;
#303 = DIRECTION ( 'NONE',  ( 0.000000000000000000, 0.000000000000000000, 1.000000000000000000 ) ) ;
#304 = CIRCLE ( 'NONE', #18, 6.000000000000000888 ) ;
#305 = CARTESIAN_POINT ( 'NONE',  ( 3.299999999999999822, 0.000000000000000000, 5.000000000000005329 ) ) ;
#306 = CYLINDRICAL_SURFACE ( 'NONE', #115, 6.000000000000000888 ) ;
#307 = DIRECTION ( 'NONE',  ( 0.000000000000000000, 0.000000000000000000, 1.000000000000000000 ) ) ;
ENDSEC;
END-ISO-10303-21;
