ISO-10303-21;
HEADER;
FILE_DESCRIPTION (( 'STEP AP203' ),
    '1' );
FILE_NAME ('d315.STEP',
    '2022-06-20T09:48:41',
    ( '' ),
    ( '' ),
    'SwSTEP 2.0',
    'SolidWorks 2019',
    '' );
FILE_SCHEMA (( 'CONFIG_CONTROL_DESIGN' ));
ENDSEC;

DATA;
#1 = CIRCLE ( 'NONE', #51, 4.200000000000000178 ) ;
#2 =( NAMED_UNIT ( * ) PLANE_ANGLE_UNIT ( ) SI_UNIT ( $, .RADIAN. ) );
#3 = ADVANCED_FACE ( 'NONE', ( #307 ), #276, .F. ) ;
#4 = APPROVAL ( #110, 'NEURÈENÝ' ) ;
#5 = APPROVAL_PERSON_ORGANIZATION ( #32, #74, #224 ) ;
#6 = CC_DESIGN_PERSON_AND_ORGANIZATION_ASSIGNMENT ( #292, #248, ( #36 ) ) ;
#7 = SHAPE_DEFINITION_REPRESENTATION ( #236, #94 ) ;
#8 = EDGE_CURVE ( 'NONE', #202, #12, #46, .T. ) ;
#9 = ORIENTED_EDGE ( 'NONE', *, *, #305, .T. ) ;
#10 = PERSON_AND_ORGANIZATION_ROLE ( 'design_supplier' ) ;
#11 = DIRECTION ( 'NONE',  ( 1.000000000000000000, 0.000000000000000000, 0.000000000000000000 ) ) ;
#12 = VERTEX_POINT ( 'NONE', #279 ) ;
#13 = PERSON_AND_ORGANIZATION ( #62, #234 ) ;
#14 = DIRECTION ( 'NONE',  ( 0.000000000000000000, 0.000000000000000000, 1.000000000000000000 ) ) ;
#15 = VERTEX_POINT ( 'NONE', #254 ) ;
#16 = LOCAL_TIME ( 11, 48, 41.00000000000000000, #64 ) ;
#17 = TOROIDAL_SURFACE ( 'NONE', #81, 4.200000000000000178, 0.2000000000000000111 ) ;
#18 = CARTESIAN_POINT ( 'NONE',  ( 0.000000000000000000, 0.000000000000000000, 5.200000000000009948 ) ) ;
#19 = DIRECTION ( 'NONE',  ( -0.000000000000000000, -0.000000000000000000, -1.000000000000000000 ) ) ;
#20 = CARTESIAN_POINT ( 'NONE',  ( 0.000000000000000000, 0.000000000000000000, 5.000000000000000000 ) ) ;
#21 = CIRCLE ( 'NONE', #96, 4.000000000000000000 ) ;
#22 = DIRECTION ( 'NONE',  ( 1.000000000000000000, 0.000000000000000000, 0.000000000000000000 ) ) ;
#23 = ORIENTED_EDGE ( 'NONE', *, *, #8, .F. ) ;
#24 = LOCAL_TIME ( 11, 48, 41.00000000000000000, #267 ) ;
#25 = LOCAL_TIME ( 11, 48, 41.00000000000000000, #33 ) ;
#26 = AXIS2_PLACEMENT_3D ( 'NONE', #108, #173, #265 ) ;
#27 = DIRECTION ( 'NONE',  ( 0.000000000000000000, 0.000000000000000000, 1.000000000000000000 ) ) ;
#28 = CC_DESIGN_PERSON_AND_ORGANIZATION_ASSIGNMENT ( #271, #174, ( #270 ) ) ;
#29 = DIRECTION ( 'NONE',  ( -0.000000000000000000, -0.000000000000000000, -1.000000000000000000 ) ) ;
#30 = DIRECTION ( 'NONE',  ( 0.000000000000000000, 0.000000000000000000, 1.000000000000000000 ) ) ;
#31 = AXIS2_PLACEMENT_3D ( 'NONE', #119, #120, #300 ) ;
#32 = PERSON_AND_ORGANIZATION ( #62, #234 ) ;
#33 = COORDINATED_UNIVERSAL_TIME_OFFSET ( 1, 0, .AHEAD. ) ;
#34 = EDGE_LOOP ( 'NONE', ( #272, #134 ) ) ;
#35 = CALENDAR_DATE ( 2022, 20, 6 ) ;
#36 = PRODUCT_DEFINITION ( 'NEZNÁMÝ', '', #245, #290 ) ;
#37 = ORIENTED_EDGE ( 'NONE', *, *, #186, .T. ) ;
#38 = CALENDAR_DATE ( 2022, 20, 6 ) ;
#39 = ORIENTED_EDGE ( 'NONE', *, *, #286, .F. ) ;
#40 = EDGE_CURVE ( 'NONE', #159, #156, #162, .T. ) ;
#41 = EDGE_LOOP ( 'NONE', ( #37, #115 ) ) ;
#42 = FACE_OUTER_BOUND ( 'NONE', #252, .T. ) ;
#43 = CYLINDRICAL_SURFACE ( 'NONE', #77, 7.000000000000000000 ) ;
#44 = CARTESIAN_POINT ( 'NONE',  ( 0.000000000000000000, 0.000000000000000000, 5.000000000000000000 ) ) ;
#45 = LOCAL_TIME ( 11, 48, 41.00000000000000000, #266 ) ;
#46 = CIRCLE ( 'NONE', #99, 4.000000000000000000 ) ;
#47 = CARTESIAN_POINT ( 'NONE',  ( 7.000000000000000000, 8.572527594031473190E-16, 5.000000000000000000 ) ) ;
#48 = EDGE_LOOP ( 'NONE', ( #127, #132 ) ) ;
#49 = CARTESIAN_POINT ( 'NONE',  ( 0.000000000000000000, 0.000000000000000000, 255.0000000000000000 ) ) ;
#50 = LOCAL_TIME ( 11, 48, 41.00000000000000000, #199 ) ;
#51 = AXIS2_PLACEMENT_3D ( 'NONE', #237, #304, #75 ) ;
#52 = DIRECTION ( 'NONE',  ( -0.000000000000000000, -0.000000000000000000, -1.000000000000000000 ) ) ;
#53 = CARTESIAN_POINT ( 'NONE',  ( 4.000000000000000000, 4.898587196589412829E-16, 255.0000000000000000 ) ) ;
#54 = PLANE ( 'NONE',  #257 ) ;
#55 = ADVANCED_FACE ( 'NONE', ( #278 ), #116, .T. ) ;
#56 = CC_DESIGN_SECURITY_CLASSIFICATION ( #270, ( #245 ) ) ;
#57 = CALENDAR_DATE ( 2022, 20, 6 ) ;
#58 = CARTESIAN_POINT ( 'NONE',  ( 7.000000000000000000, 8.572527594031473190E-16, 5.000000000000000000 ) ) ;
#59 = EDGE_LOOP ( 'NONE', ( #23, #135, #78, #297 ) ) ;
#60 = EDGE_CURVE ( 'NONE', #183, #92, #187, .T. ) ;
#61 = PERSON_AND_ORGANIZATION ( #62, #234 ) ;
#62 = PERSON ( 'NEURÈENÝ', 'NEURÈENÝ', 'NEURÈENÝ', ('NEURÈENÝ'), ('NEURÈENÝ'), ('NEURÈENÝ') ) ;
#63 = CC_DESIGN_DATE_AND_TIME_ASSIGNMENT ( #66, #203, ( #270 ) ) ;
#64 = COORDINATED_UNIVERSAL_TIME_OFFSET ( 1, 0, .AHEAD. ) ;
#65 = ORIENTED_EDGE ( 'NONE', *, *, #305, .F. ) ;
#66 = DATE_AND_TIME ( #223, #16 ) ;
#67 = LINE ( 'NONE', #167, #196 ) ;
#68 = ORIENTED_EDGE ( 'NONE', *, *, #8, .T. ) ;
#69 = APPROVAL ( #201, 'NEURÈENÝ' ) ;
#70 = ADVANCED_FACE ( 'NONE', ( #213 ), #212, .T. ) ;
#71 = CARTESIAN_POINT ( 'NONE',  ( 4.200000000000000178, 0.000000000000000000, 5.200000000000009948 ) ) ;
#72 = AXIS2_PLACEMENT_3D ( 'NONE', #138, #76, #161 ) ;
#73 = DIRECTION ( 'NONE',  ( 0.000000000000000000, 0.000000000000000000, -1.000000000000000000 ) ) ;
#74 = APPROVAL ( #181, 'NEURÈENÝ' ) ;
#75 = DIRECTION ( 'NONE',  ( 1.000000000000000000, 0.000000000000000000, 0.000000000000000000 ) ) ;
#76 = DIRECTION ( 'NONE',  ( 0.000000000000000000, 0.000000000000000000, 1.000000000000000000 ) ) ;
#77 = AXIS2_PLACEMENT_3D ( 'NONE', #20, #118, #303 ) ;
#78 = ORIENTED_EDGE ( 'NONE', *, *, #142, .T. ) ;
#79 = DIRECTION ( 'NONE',  ( 1.000000000000000000, 0.000000000000000000, -0.000000000000000000 ) ) ;
#80 = LINE ( 'NONE', #242, #247 ) ;
#81 = AXIS2_PLACEMENT_3D ( 'NONE', #256, #137, #301 ) ;
#82 = FACE_OUTER_BOUND ( 'NONE', #48, .T. ) ;
#83 = MANIFOLD_SOLID_BREP ( 'Zaoblit1', #229 ) ;
#84 = APPROVAL_ROLE ( '' ) ;
#85 = PLANE ( 'NONE',  #192 ) ;
#86 = VECTOR ( 'NONE', #197, 1000.000000000000000 ) ;
#87 = ORIENTED_EDGE ( 'NONE', *, *, #60, .F. ) ;
#88 = DATE_AND_TIME ( #131, #24 ) ;
#89 = ORIENTED_EDGE ( 'NONE', *, *, #186, .F. ) ;
#90 = SECURITY_CLASSIFICATION_LEVEL ( 'unclassified' ) ;
#91 = CIRCLE ( 'NONE', #125, 7.000000000000000000 ) ;
#92 = VERTEX_POINT ( 'NONE', #165 ) ;
#93 = EDGE_CURVE ( 'NONE', #227, #156, #302, .T. ) ;
#94 = ADVANCED_BREP_SHAPE_REPRESENTATION ( 'd315', ( #83, #275 ), #180 ) ;
#95 = ORIENTED_EDGE ( 'NONE', *, *, #60, .T. ) ;
#96 = AXIS2_PLACEMENT_3D ( 'NONE', #193, #241, #282 ) ;
#97 = DIRECTION ( 'NONE',  ( -0.000000000000000000, -0.000000000000000000, -1.000000000000000000 ) ) ;
#98 = EDGE_CURVE ( 'NONE', #231, #159, #220, .T. ) ;
#99 = AXIS2_PLACEMENT_3D ( 'NONE', #281, #140, #210 ) ;
#100 = DIRECTION ( 'NONE',  ( 0.000000000000000000, -1.000000000000000000, 0.000000000000000000 ) ) ;
#101 = DIRECTION ( 'NONE',  ( 0.000000000000000000, 0.000000000000000000, 1.000000000000000000 ) ) ;
#102 = DIRECTION ( 'NONE',  ( 1.000000000000000000, 0.000000000000000000, 0.000000000000000000 ) ) ;
#103 = CIRCLE ( 'NONE', #215, 0.1999999999999996503 ) ;
#104 = FACE_OUTER_BOUND ( 'NONE', #34, .T. ) ;
#105 = DIRECTION ( 'NONE',  ( -1.000000000000000000, 1.224646799147353454E-16, 0.000000000000000000 ) ) ;
#106 = CARTESIAN_POINT ( 'NONE',  ( 0.000000000000000000, 0.000000000000000000, 5.000000000000000000 ) ) ;
#107 = APPROVAL_PERSON_ORGANIZATION ( #157, #69, #298 ) ;
#108 = CARTESIAN_POINT ( 'NONE',  ( 0.000000000000000000, 0.000000000000000000, 255.0000000000000000 ) ) ;
#109 = ORIENTED_EDGE ( 'NONE', *, *, #136, .F. ) ;
#110 = APPROVAL_STATUS ( 'not_yet_approved' ) ;
#111 = CARTESIAN_POINT ( 'NONE',  ( 7.000000000000000000, 8.572527594031473190E-16, 0.000000000000000000 ) ) ;
#112 = ORIENTED_EDGE ( 'NONE', *, *, #114, .F. ) ;
#113 = PERSON_AND_ORGANIZATION_ROLE ( 'creator' ) ;
#114 = EDGE_CURVE ( 'NONE', #15, #92, #1, .T. ) ;
#115 = ORIENTED_EDGE ( 'NONE', *, *, #114, .T. ) ;
#116 = CYLINDRICAL_SURFACE ( 'NONE', #145, 4.000000000000000000 ) ;
#117 = FACE_OUTER_BOUND ( 'NONE', #153, .T. ) ;
#118 = DIRECTION ( 'NONE',  ( -0.000000000000000000, -0.000000000000000000, -1.000000000000000000 ) ) ;
#119 = CARTESIAN_POINT ( 'NONE',  ( 0.000000000000000000, 0.000000000000000000, 0.000000000000000000 ) ) ;
#120 = DIRECTION ( 'NONE',  ( 0.000000000000000000, 0.000000000000000000, 1.000000000000000000 ) ) ;
#121 = EDGE_CURVE ( 'NONE', #159, #231, #91, .T. ) ;
#122 = CARTESIAN_POINT ( 'NONE',  ( 0.000000000000000000, 0.000000000000000000, 0.000000000000000000 ) ) ;
#123 = DIRECTION ( 'NONE',  ( -1.000000000000000000, 0.000000000000000000, 0.000000000000000000 ) ) ;
#124 = CARTESIAN_POINT ( 'NONE',  ( 0.000000000000000000, 0.000000000000000000, 5.000000000000000000 ) ) ;
#125 = AXIS2_PLACEMENT_3D ( 'NONE', #44, #277, #22 ) ;
#126 = UNCERTAINTY_MEASURE_WITH_UNIT (LENGTH_MEASURE( 1.000000000000000082E-05 ), #148, 'distance_accuracy_value', 'NONE');
#127 = ORIENTED_EDGE ( 'NONE', *, *, #221, .F. ) ;
#128 = DATE_AND_TIME ( #35, #50 ) ;
#129 = AXIS2_PLACEMENT_3D ( 'NONE', #274, #209, #141 ) ;
#130 = VERTEX_POINT ( 'NONE', #188 ) ;
#131 = CALENDAR_DATE ( 2022, 20, 6 ) ;
#132 = ORIENTED_EDGE ( 'NONE', *, *, #93, .F. ) ;
#133 = APPROVAL_DATE_TIME ( #128, #69 ) ;
#134 = ORIENTED_EDGE ( 'NONE', *, *, #98, .T. ) ;
#135 = ORIENTED_EDGE ( 'NONE', *, *, #286, .T. ) ;
#136 = EDGE_CURVE ( 'NONE', #130, #183, #170, .T. ) ;
#137 = DIRECTION ( 'NONE',  ( 0.000000000000000000, 0.000000000000000000, 1.000000000000000000 ) ) ;
#138 = CARTESIAN_POINT ( 'NONE',  ( 0.000000000000000000, 0.000000000000000000, 5.000000000000000000 ) ) ;
#139 = APPROVAL_PERSON_ORGANIZATION ( #250, #4, #84 ) ;
#140 = DIRECTION ( 'NONE',  ( 0.000000000000000000, 0.000000000000000000, 1.000000000000000000 ) ) ;
#141 = DIRECTION ( 'NONE',  ( -1.000000000000000000, 0.000000000000000000, 0.000000000000000000 ) ) ;
#142 = EDGE_CURVE ( 'NONE', #183, #130, #211, .T. ) ;
#143 = ADVANCED_FACE ( 'NONE', ( #42 ), #17, .F. ) ;
#144 = CC_DESIGN_APPROVAL ( #74, ( #245 ) ) ;
#145 = AXIS2_PLACEMENT_3D ( 'NONE', #49, #97, #185 ) ;
#146 = ADVANCED_FACE ( 'NONE', ( #117 ), #43, .T. ) ;
#147 = CARTESIAN_POINT ( 'NONE',  ( -7.000000000000000000, 0.000000000000000000, 0.000000000000000000 ) ) ;
#148 =( LENGTH_UNIT ( ) NAMED_UNIT ( * ) SI_UNIT ( .MILLI., .METRE. ) );
#149 = DATE_AND_TIME ( #57, #45 ) ;
#150 = ADVANCED_FACE ( 'NONE', ( #82 ), #85, .F. ) ;
#151 = EDGE_CURVE ( 'NONE', #231, #227, #172, .T. ) ;
#152 = MECHANICAL_CONTEXT ( 'NONE', #291, 'mechanical' ) ;
#153 = EDGE_LOOP ( 'NONE', ( #177, #155, #249, #251 ) ) ;
#154 = APPLICATION_PROTOCOL_DEFINITION ( 'international standard', 'config_control_design', 1994, #288 ) ;
#155 = ORIENTED_EDGE ( 'NONE', *, *, #151, .T. ) ;
#156 = VERTEX_POINT ( 'NONE', #147 ) ;
#157 = PERSON_AND_ORGANIZATION ( #62, #234 ) ;
#158 = CC_DESIGN_PERSON_AND_ORGANIZATION_ASSIGNMENT ( #179, #10, ( #245 ) ) ;
#159 = VERTEX_POINT ( 'NONE', #169 ) ;
#160 = AXIS2_PLACEMENT_3D ( 'NONE', #106, #195, #264 ) ;
#161 = DIRECTION ( 'NONE',  ( 1.000000000000000000, 0.000000000000000000, 0.000000000000000000 ) ) ;
#162 = LINE ( 'NONE', #233, #217 ) ;
#163 = DIRECTION ( 'NONE',  ( 0.000000000000000000, 0.000000000000000000, 1.000000000000000000 ) ) ;
#164 = PRODUCT ( 'd315', 'd315', '', ( #152 ) ) ;
#165 = CARTESIAN_POINT ( 'NONE',  ( 4.200000000000000178, 0.000000000000000000, 5.000000000000005329 ) ) ;
#166 = AXIS2_PLACEMENT_3D ( 'NONE', #235, #101, #102 ) ;
#167 = CARTESIAN_POINT ( 'NONE',  ( 4.000000000000000000, 4.898587196589412829E-16, 255.0000000000000000 ) ) ;
#168 = ORIENTED_EDGE ( 'NONE', *, *, #294, .F. ) ;
#169 = CARTESIAN_POINT ( 'NONE',  ( -7.000000000000000000, 0.000000000000000000, 5.000000000000000000 ) ) ;
#170 = CIRCLE ( 'NONE', #166, 4.000000000000000000 ) ;
#171 = EDGE_CURVE ( 'NONE', #12, #130, #80, .T. ) ;
#172 = LINE ( 'NONE', #58, #86 ) ;
#173 = DIRECTION ( 'NONE',  ( 0.000000000000000000, 0.000000000000000000, 1.000000000000000000 ) ) ;
#174 = PERSON_AND_ORGANIZATION_ROLE ( 'classification_officer' ) ;
#175 = ADVANCED_FACE ( 'NONE', ( #287 ), #261, .T. ) ;
#176 = EDGE_LOOP ( 'NONE', ( #109, #9, #89, #87 ) ) ;
#177 = ORIENTED_EDGE ( 'NONE', *, *, #98, .F. ) ;
#178 = CC_DESIGN_DATE_AND_TIME_ASSIGNMENT ( #289, #246, ( #36 ) ) ;
#179 = PERSON_AND_ORGANIZATION ( #62, #234 ) ;
#180 =( GEOMETRIC_REPRESENTATION_CONTEXT ( 3 ) GLOBAL_UNCERTAINTY_ASSIGNED_CONTEXT ( ( #126 ) ) GLOBAL_UNIT_ASSIGNED_CONTEXT ( ( #148, #2, #243 ) ) REPRESENTATION_CONTEXT ( 'NONE', 'WORKASPACE' ) );
#181 = APPROVAL_STATUS ( 'not_yet_approved' ) ;
#182 = AXIS2_PLACEMENT_3D ( 'NONE', #18, #259, #190 ) ;
#183 = VERTEX_POINT ( 'NONE', #218 ) ;
#184 = EDGE_LOOP ( 'NONE', ( #189, #68 ) ) ;
#185 = DIRECTION ( 'NONE',  ( -1.000000000000000000, 0.000000000000000000, 0.000000000000000000 ) ) ;
#186 = EDGE_CURVE ( 'NONE', #92, #15, #253, .T. ) ;
#187 = CIRCLE ( 'NONE', #280, 0.1999999999999996503 ) ;
#188 = CARTESIAN_POINT ( 'NONE',  ( -4.000000000000000000, 0.000000000000000000, 5.200000000000009948 ) ) ;
#189 = ORIENTED_EDGE ( 'NONE', *, *, #294, .T. ) ;
#190 = DIRECTION ( 'NONE',  ( 1.000000000000000000, 0.000000000000000000, 0.000000000000000000 ) ) ;
#191 = DIRECTION ( 'NONE',  ( 1.000000000000000000, 0.000000000000000000, 0.000000000000000000 ) ) ;
#192 = AXIS2_PLACEMENT_3D ( 'NONE', #122, #27, #283 ) ;
#193 = CARTESIAN_POINT ( 'NONE',  ( 0.000000000000000000, 0.000000000000000000, 255.0000000000000000 ) ) ;
#194 = FACE_BOUND ( 'NONE', #41, .T. ) ;
#195 = DIRECTION ( 'NONE',  ( -0.000000000000000000, -0.000000000000000000, -1.000000000000000000 ) ) ;
#196 = VECTOR ( 'NONE', #29, 1000.000000000000000 ) ;
#197 = DIRECTION ( 'NONE',  ( -0.000000000000000000, -0.000000000000000000, -1.000000000000000000 ) ) ;
#198 = CARTESIAN_POINT ( 'NONE',  ( 0.000000000000000000, 0.000000000000000000, 0.000000000000000000 ) ) ;
#199 = COORDINATED_UNIVERSAL_TIME_OFFSET ( 1, 0, .AHEAD. ) ;
#200 = CIRCLE ( 'NONE', #284, 7.000000000000000000 ) ;
#201 = APPROVAL_STATUS ( 'not_yet_approved' ) ;
#202 = VERTEX_POINT ( 'NONE', #53 ) ;
#203 = DATE_TIME_ROLE ( 'classification_date' ) ;
#204 = ORIENTED_EDGE ( 'NONE', *, *, #40, .T. ) ;
#205 = PRODUCT_RELATED_PRODUCT_CATEGORY ( 'detail', '', ( #164 ) ) ;
#206 = ADVANCED_FACE ( 'NONE', ( #222 ), #219, .T. ) ;
#207 = PERSON_AND_ORGANIZATION_ROLE ( 'design_owner' ) ;
#208 = ORIENTED_EDGE ( 'NONE', *, *, #171, .T. ) ;
#209 = DIRECTION ( 'NONE',  ( -0.000000000000000000, -0.000000000000000000, -1.000000000000000000 ) ) ;
#210 = DIRECTION ( 'NONE',  ( 1.000000000000000000, 0.000000000000000000, 0.000000000000000000 ) ) ;
#211 = CIRCLE ( 'NONE', #285, 4.000000000000000000 ) ;
#212 = CYLINDRICAL_SURFACE ( 'NONE', #129, 4.000000000000000000 ) ;
#213 = FACE_OUTER_BOUND ( 'NONE', #293, .T. ) ;
#214 = CARTESIAN_POINT ( 'NONE',  ( -4.200000000000000178, 5.143516556418882928E-16, 5.200000000000009948 ) ) ;
#215 = AXIS2_PLACEMENT_3D ( 'NONE', #214, #240, #105 ) ;
#216 = DIRECTION ( 'NONE',  ( -0.000000000000000000, -0.000000000000000000, -1.000000000000000000 ) ) ;
#217 = VECTOR ( 'NONE', #19, 1000.000000000000000 ) ;
#218 = CARTESIAN_POINT ( 'NONE',  ( 4.000000000000000000, 4.898587196589412829E-16, 5.200000000000009948 ) ) ;
#219 = PLANE ( 'NONE',  #26 ) ;
#220 = CIRCLE ( 'NONE', #72, 7.000000000000000000 ) ;
#221 = EDGE_CURVE ( 'NONE', #156, #227, #200, .T. ) ;
#222 = FACE_OUTER_BOUND ( 'NONE', #184, .T. ) ;
#223 = CALENDAR_DATE ( 2022, 20, 6 ) ;
#224 = APPROVAL_ROLE ( '' ) ;
#225 = ORIENTED_EDGE ( 'NONE', *, *, #136, .T. ) ;
#226 = APPROVAL_DATE_TIME ( #88, #74 ) ;
#227 = VERTEX_POINT ( 'NONE', #111 ) ;
#228 = DIRECTION ( 'NONE',  ( 1.000000000000000000, 0.000000000000000000, 0.000000000000000000 ) ) ;
#229 = CLOSED_SHELL ( 'NONE', ( #3, #55, #146, #175, #306, #150, #70, #206, #143 ) ) ;
#230 = ORIENTED_EDGE ( 'NONE', *, *, #221, .T. ) ;
#231 = VERTEX_POINT ( 'NONE', #47 ) ;
#232 = CC_DESIGN_PERSON_AND_ORGANIZATION_ASSIGNMENT ( #61, #207, ( #164 ) ) ;
#233 = CARTESIAN_POINT ( 'NONE',  ( -7.000000000000000000, 0.000000000000000000, 5.000000000000000000 ) ) ;
#234 = ORGANIZATION ( 'NEURÈENÝ', 'NEURÈENÝ', '' ) ;
#235 = CARTESIAN_POINT ( 'NONE',  ( 0.000000000000000000, 0.000000000000000000, 5.200000000000009948 ) ) ;
#236 = PRODUCT_DEFINITION_SHAPE ( 'NONE', 'NONE',  #36 ) ;
#237 = CARTESIAN_POINT ( 'NONE',  ( 0.000000000000000000, 0.000000000000000000, 5.000000000000000000 ) ) ;
#238 = DIRECTION ( 'NONE',  ( 0.000000000000000000, 0.000000000000000000, 1.000000000000000000 ) ) ;
#239 = CC_DESIGN_APPROVAL ( #4, ( #270 ) ) ;
#240 = DIRECTION ( 'NONE',  ( 1.224646799147353207E-16, 1.000000000000000000, -0.000000000000000000 ) ) ;
#241 = DIRECTION ( 'NONE',  ( 0.000000000000000000, 0.000000000000000000, 1.000000000000000000 ) ) ;
#242 = CARTESIAN_POINT ( 'NONE',  ( -4.000000000000000000, 0.000000000000000000, 255.0000000000000000 ) ) ;
#243 =( NAMED_UNIT ( * ) SI_UNIT ( $, .STERADIAN. ) SOLID_ANGLE_UNIT ( ) );
#244 = CARTESIAN_POINT ( 'NONE',  ( 0.000000000000000000, 0.000000000000000000, 0.000000000000000000 ) ) ;
#245 = PRODUCT_DEFINITION_FORMATION_WITH_SPECIFIED_SOURCE ( 'LIBOVOLNÝ', '', #164, .NOT_KNOWN. ) ;
#246 = DATE_TIME_ROLE ( 'creation_date' ) ;
#247 = VECTOR ( 'NONE', #216, 1000.000000000000000 ) ;
#248 = PERSON_AND_ORGANIZATION_ROLE ( 'creator' ) ;
#249 = ORIENTED_EDGE ( 'NONE', *, *, #93, .T. ) ;
#250 = PERSON_AND_ORGANIZATION ( #62, #234 ) ;
#251 = ORIENTED_EDGE ( 'NONE', *, *, #40, .F. ) ;
#252 = EDGE_LOOP ( 'NONE', ( #65, #258, #95, #112 ) ) ;
#253 = CIRCLE ( 'NONE', #160, 4.200000000000000178 ) ;
#254 = CARTESIAN_POINT ( 'NONE',  ( -4.200000000000000178, 5.143516556418882928E-16, 5.000000000000005329 ) ) ;
#255 = CARTESIAN_POINT ( 'NONE',  ( 0.000000000000000000, 0.000000000000000000, 5.200000000000009948 ) ) ;
#256 = CARTESIAN_POINT ( 'NONE',  ( 0.000000000000000000, 0.000000000000000000, 5.200000000000009948 ) ) ;
#257 = AXIS2_PLACEMENT_3D ( 'NONE', #263, #238, #79 ) ;
#258 = ORIENTED_EDGE ( 'NONE', *, *, #142, .F. ) ;
#259 = DIRECTION ( 'NONE',  ( 0.000000000000000000, 0.000000000000000000, 1.000000000000000000 ) ) ;
#260 = CC_DESIGN_APPROVAL ( #69, ( #36 ) ) ;
#261 = CYLINDRICAL_SURFACE ( 'NONE', #295, 7.000000000000000000 ) ;
#262 = CC_DESIGN_PERSON_AND_ORGANIZATION_ASSIGNMENT ( #13, #113, ( #245 ) ) ;
#263 = CARTESIAN_POINT ( 'NONE',  ( 0.000000000000000000, 0.000000000000000000, 5.000000000000000000 ) ) ;
#264 = DIRECTION ( 'NONE',  ( 1.000000000000000000, 0.000000000000000000, 0.000000000000000000 ) ) ;
#265 = DIRECTION ( 'NONE',  ( 1.000000000000000000, 0.000000000000000000, -0.000000000000000000 ) ) ;
#266 = COORDINATED_UNIVERSAL_TIME_OFFSET ( 1, 0, .AHEAD. ) ;
#267 = COORDINATED_UNIVERSAL_TIME_OFFSET ( 1, 0, .AHEAD. ) ;
#268 = APPLICATION_PROTOCOL_DEFINITION ( 'international standard', 'config_control_design', 1994, #291 ) ;
#269 = ORIENTED_EDGE ( 'NONE', *, *, #121, .F. ) ;
#270 = SECURITY_CLASSIFICATION ( '', '', #90 ) ;
#271 = PERSON_AND_ORGANIZATION ( #62, #234 ) ;
#272 = ORIENTED_EDGE ( 'NONE', *, *, #121, .T. ) ;
#273 = EDGE_LOOP ( 'NONE', ( #299, #269, #204, #230 ) ) ;
#274 = CARTESIAN_POINT ( 'NONE',  ( 0.000000000000000000, 0.000000000000000000, 255.0000000000000000 ) ) ;
#275 = AXIS2_PLACEMENT_3D ( 'NONE', #198, #14, #228 ) ;
#276 = TOROIDAL_SURFACE ( 'NONE', #182, 4.200000000000000178, 0.2000000000000000111 ) ;
#277 = DIRECTION ( 'NONE',  ( 0.000000000000000000, 0.000000000000000000, 1.000000000000000000 ) ) ;
#278 = FACE_OUTER_BOUND ( 'NONE', #59, .T. ) ;
#279 = CARTESIAN_POINT ( 'NONE',  ( -4.000000000000000000, 0.000000000000000000, 255.0000000000000000 ) ) ;
#280 = AXIS2_PLACEMENT_3D ( 'NONE', #71, #100, #73 ) ;
#281 = CARTESIAN_POINT ( 'NONE',  ( 0.000000000000000000, 0.000000000000000000, 255.0000000000000000 ) ) ;
#282 = DIRECTION ( 'NONE',  ( 1.000000000000000000, 0.000000000000000000, 0.000000000000000000 ) ) ;
#283 = DIRECTION ( 'NONE',  ( 1.000000000000000000, 0.000000000000000000, -0.000000000000000000 ) ) ;
#284 = AXIS2_PLACEMENT_3D ( 'NONE', #244, #30, #11 ) ;
#285 = AXIS2_PLACEMENT_3D ( 'NONE', #255, #163, #191 ) ;
#286 = EDGE_CURVE ( 'NONE', #202, #183, #67, .T. ) ;
#287 = FACE_OUTER_BOUND ( 'NONE', #273, .T. ) ;
#288 = APPLICATION_CONTEXT ( 'configuration controlled 3d designs of mechanical parts and assemblies' ) ;
#289 = DATE_AND_TIME ( #38, #25 ) ;
#290 = DESIGN_CONTEXT ( 'detailed design', #288, 'design' ) ;
#291 = APPLICATION_CONTEXT ( 'configuration controlled 3d designs of mechanical parts and assemblies' ) ;
#292 = PERSON_AND_ORGANIZATION ( #62, #234 ) ;
#293 = EDGE_LOOP ( 'NONE', ( #39, #168, #208, #225 ) ) ;
#294 = EDGE_CURVE ( 'NONE', #12, #202, #21, .T. ) ;
#295 = AXIS2_PLACEMENT_3D ( 'NONE', #124, #52, #123 ) ;
#296 = APPROVAL_DATE_TIME ( #149, #4 ) ;
#297 = ORIENTED_EDGE ( 'NONE', *, *, #171, .F. ) ;
#298 = APPROVAL_ROLE ( '' ) ;
#299 = ORIENTED_EDGE ( 'NONE', *, *, #151, .F. ) ;
#300 = DIRECTION ( 'NONE',  ( 1.000000000000000000, 0.000000000000000000, 0.000000000000000000 ) ) ;
#301 = DIRECTION ( 'NONE',  ( 1.000000000000000000, 0.000000000000000000, 0.000000000000000000 ) ) ;
#302 = CIRCLE ( 'NONE', #31, 7.000000000000000000 ) ;
#303 = DIRECTION ( 'NONE',  ( -1.000000000000000000, 0.000000000000000000, 0.000000000000000000 ) ) ;
#304 = DIRECTION ( 'NONE',  ( -0.000000000000000000, -0.000000000000000000, -1.000000000000000000 ) ) ;
#305 = EDGE_CURVE ( 'NONE', #130, #15, #103, .T. ) ;
#306 = ADVANCED_FACE ( 'NONE', ( #194, #104 ), #54, .T. ) ;
#307 = FACE_OUTER_BOUND ( 'NONE', #176, .T. ) ;
ENDSEC;
END-ISO-10303-21;
