ISO-10303-21;
HEADER;
FILE_DESCRIPTION (( 'STEP AP203' ),
    '1' );
FILE_NAME ('9493.STEP',
    '2022-06-20T09:54:35',
    ( '' ),
    ( '' ),
    'SwSTEP 2.0',
    'SolidWorks 2019',
    '' );
FILE_SCHEMA (( 'CONFIG_CONTROL_DESIGN' ));
ENDSEC;

DATA;
#1 = DIRECTION ( 'NONE',  ( -1.000000000000000000, 0.000000000000000000, 0.000000000000000000 ) ) ;
#2 = EDGE_CURVE ( 'NONE', #278, #29, #20, .T. ) ;
#3 = CARTESIAN_POINT ( 'NONE',  ( 0.000000000000000000, 0.000000000000000000, 205.0000000000000284 ) ) ;
#4 = DIRECTION ( 'NONE',  ( -0.000000000000000000, -0.000000000000000000, -1.000000000000000000 ) ) ;
#5 = VERTEX_POINT ( 'NONE', #40 ) ;
#6 = EDGE_CURVE ( 'NONE', #29, #274, #198, .T. ) ;
#7 = ORIENTED_EDGE ( 'NONE', *, *, #144, .T. ) ;
#8 = ORIENTED_EDGE ( 'NONE', *, *, #222, .F. ) ;
#9 = DIRECTION ( 'NONE',  ( -1.000000000000000000, 0.000000000000000000, 0.000000000000000000 ) ) ;
#10 = ORIENTED_EDGE ( 'NONE', *, *, #92, .T. ) ;
#11 = DIRECTION ( 'NONE',  ( -0.000000000000000000, -0.000000000000000000, -1.000000000000000000 ) ) ;
#12 = VECTOR ( 'NONE', #243, 1000.000000000000000 ) ;
#13 = DIRECTION ( 'NONE',  ( 0.000000000000000000, 0.000000000000000000, 1.000000000000000000 ) ) ;
#14 = ADVANCED_FACE ( 'NONE', ( #99, #164 ), #68, .T. ) ;
#15 = APPLICATION_PROTOCOL_DEFINITION ( 'international standard', 'config_control_design', 1994, #224 ) ;
#16 = DIRECTION ( 'NONE',  ( 1.000000000000000000, 0.000000000000000000, 0.000000000000000000 ) ) ;
#17 = DIRECTION ( 'NONE',  ( -0.000000000000000000, -0.000000000000000000, -1.000000000000000000 ) ) ;
#18 = CIRCLE ( 'NONE', #238, 3.250000000000000444 ) ;
#19 = ADVANCED_FACE ( 'NONE', ( #44 ), #169, .T. ) ;
#20 = CIRCLE ( 'NONE', #296, 3.250000000000000444 ) ;
#21 = CARTESIAN_POINT ( 'NONE',  ( 3.250000000000000444, 3.980102097228898231E-16, 205.0000000000000284 ) ) ;
#22 = APPROVAL_PERSON_ORGANIZATION ( #279, #171, #195 ) ;
#23 = CC_DESIGN_SECURITY_CLASSIFICATION ( #178, ( #158 ) ) ;
#24 = CARTESIAN_POINT ( 'NONE',  ( 3.250000000000000444, 3.980102097228898231E-16, 205.0000000000000284 ) ) ;
#25 = ADVANCED_FACE ( 'NONE', ( #60 ), #258, .F. ) ;
#26 = EDGE_LOOP ( 'NONE', ( #186, #113, #229, #204 ) ) ;
#27 = AXIS2_PLACEMENT_3D ( 'NONE', #215, #261, #145 ) ;
#28 = DESIGN_CONTEXT ( 'detailed design', #211, 'design' ) ;
#29 = VERTEX_POINT ( 'NONE', #237 ) ;
#30 = AXIS2_PLACEMENT_3D ( 'NONE', #157, #223, #1 ) ;
#31 = PRODUCT_RELATED_PRODUCT_CATEGORY ( 'detail', '', ( #86 ) ) ;
#32 = ORIENTED_EDGE ( 'NONE', *, *, #222, .T. ) ;
#33 = FACE_OUTER_BOUND ( 'NONE', #161, .T. ) ;
#34 = AXIS2_PLACEMENT_3D ( 'NONE', #216, #127, #119 ) ;
#35 = ORIENTED_EDGE ( 'NONE', *, *, #144, .F. ) ;
#36 = APPROVAL ( #39, 'NEURÈENÝ' ) ;
#37 = PRODUCT_DEFINITION_SHAPE ( 'NONE', 'NONE',  #185 ) ;
#38 = DIRECTION ( 'NONE',  ( 1.224646799147353207E-16, 1.000000000000000000, -0.000000000000000000 ) ) ;
#39 = APPROVAL_STATUS ( 'not_yet_approved' ) ;
#40 = CARTESIAN_POINT ( 'NONE',  ( -6.000000000000000888, 0.000000000000000000, 5.000000000000000000 ) ) ;
#41 = APPROVAL_DATE_TIME ( #117, #120 ) ;
#42 = DIRECTION ( 'NONE',  ( 0.000000000000000000, 0.000000000000000000, 1.000000000000000000 ) ) ;
#43 = DIRECTION ( 'NONE',  ( 0.000000000000000000, 0.000000000000000000, 1.000000000000000000 ) ) ;
#44 = FACE_OUTER_BOUND ( 'NONE', #109, .T. ) ;
#45 = PERSON_AND_ORGANIZATION ( #133, #267 ) ;
#46 = DIRECTION ( 'NONE',  ( -0.000000000000000000, -0.000000000000000000, -1.000000000000000000 ) ) ;
#47 = CYLINDRICAL_SURFACE ( 'NONE', #30, 3.250000000000000444 ) ;
#48 = DIRECTION ( 'NONE',  ( 0.000000000000000000, 0.000000000000000000, 1.000000000000000000 ) ) ;
#49 = CARTESIAN_POINT ( 'NONE',  ( 6.000000000000000888, 7.347880794884120722E-16, 0.000000000000000000 ) ) ;
#50 = ADVANCED_FACE ( 'NONE', ( #116 ), #103, .F. ) ;
#51 = AXIS2_PLACEMENT_3D ( 'NONE', #73, #46, #112 ) ;
#52 = CARTESIAN_POINT ( 'NONE',  ( 0.000000000000000000, 0.000000000000000000, 205.0000000000000284 ) ) ;
#53 = CARTESIAN_POINT ( 'NONE',  ( 3.450000000000000178, 0.000000000000000000, 5.200000000000009948 ) ) ;
#54 = ADVANCED_FACE ( 'NONE', ( #170 ), #146, .F. ) ;
#55 = ORIENTED_EDGE ( 'NONE', *, *, #191, .T. ) ;
#56 = CARTESIAN_POINT ( 'NONE',  ( -3.450000000000000178, 4.225031457058368824E-16, 5.000000000000005329 ) ) ;
#57 = ORIENTED_EDGE ( 'NONE', *, *, #247, .F. ) ;
#58 = AXIS2_PLACEMENT_3D ( 'NONE', #225, #48, #71 ) ;
#59 = CARTESIAN_POINT ( 'NONE',  ( -3.250000000000000444, 0.000000000000000000, 205.0000000000000284 ) ) ;
#60 = FACE_OUTER_BOUND ( 'NONE', #88, .T. ) ;
#61 = APPROVAL_ROLE ( '' ) ;
#62 = ORIENTED_EDGE ( 'NONE', *, *, #273, .T. ) ;
#63 = VECTOR ( 'NONE', #263, 1000.000000000000000 ) ;
#64 = EDGE_CURVE ( 'NONE', #82, #5, #214, .T. ) ;
#65 =( NAMED_UNIT ( * ) PLANE_ANGLE_UNIT ( ) SI_UNIT ( $, .RADIAN. ) );
#66 = ORIENTED_EDGE ( 'NONE', *, *, #235, .F. ) ;
#67 = APPROVAL_STATUS ( 'not_yet_approved' ) ;
#68 = PLANE ( 'NONE',  #252 ) ;
#69 = AXIS2_PLACEMENT_3D ( 'NONE', #179, #81, #141 ) ;
#70 = CALENDAR_DATE ( 2022, 20, 6 ) ;
#71 = DIRECTION ( 'NONE',  ( 1.000000000000000000, 0.000000000000000000, 0.000000000000000000 ) ) ;
#72 = CALENDAR_DATE ( 2022, 20, 6 ) ;
#73 = CARTESIAN_POINT ( 'NONE',  ( 0.000000000000000000, 0.000000000000000000, 5.000000000000000000 ) ) ;
#74 = CARTESIAN_POINT ( 'NONE',  ( -6.000000000000000888, 0.000000000000000000, 0.000000000000000000 ) ) ;
#75 = EDGE_CURVE ( 'NONE', #5, #180, #125, .T. ) ;
#76 = CARTESIAN_POINT ( 'NONE',  ( 0.000000000000000000, 0.000000000000000000, 5.200000000000009948 ) ) ;
#77 = CIRCLE ( 'NONE', #262, 3.250000000000000444 ) ;
#78 = AXIS2_PLACEMENT_3D ( 'NONE', #176, #4, #271 ) ;
#79 = EDGE_CURVE ( 'NONE', #180, #251, #118, .T. ) ;
#80 = EDGE_LOOP ( 'NONE', ( #8, #35, #55, #276 ) ) ;
#81 = DIRECTION ( 'NONE',  ( -0.000000000000000000, -0.000000000000000000, -1.000000000000000000 ) ) ;
#82 = VERTEX_POINT ( 'NONE', #220 ) ;
#83 = ORIENTED_EDGE ( 'NONE', *, *, #235, .T. ) ;
#84 = ADVANCED_BREP_SHAPE_REPRESENTATION ( '9493', ( #226, #209 ), #282 ) ;
#85 = ORIENTED_EDGE ( 'NONE', *, *, #64, .T. ) ;
#86 = PRODUCT ( '9493', '9493', '', ( #124 ) ) ;
#87 = DIRECTION ( 'NONE',  ( 0.000000000000000000, 0.000000000000000000, -1.000000000000000000 ) ) ;
#88 = EDGE_LOOP ( 'NONE', ( #163, #182 ) ) ;
#89 =( LENGTH_UNIT ( ) NAMED_UNIT ( * ) SI_UNIT ( .MILLI., .METRE. ) );
#90 = ORIENTED_EDGE ( 'NONE', *, *, #75, .F. ) ;
#91 = DATE_TIME_ROLE ( 'creation_date' ) ;
#92 = EDGE_CURVE ( 'NONE', #251, #180, #288, .T. ) ;
#93 = DIRECTION ( 'NONE',  ( 1.000000000000000000, 0.000000000000000000, 0.000000000000000000 ) ) ;
#94 = PERSON_AND_ORGANIZATION_ROLE ( 'classification_officer' ) ;
#95 = PERSON_AND_ORGANIZATION_ROLE ( 'design_owner' ) ;
#96 = CARTESIAN_POINT ( 'NONE',  ( 0.000000000000000000, 0.000000000000000000, 5.200000000000009948 ) ) ;
#97 = PERSON_AND_ORGANIZATION ( #133, #267 ) ;
#98 = DATE_AND_TIME ( #283, #137 ) ;
#99 = FACE_BOUND ( 'NONE', #183, .T. ) ;
#100 = LOCAL_TIME ( 11, 54, 35.00000000000000000, #187 ) ;
#101 = CALENDAR_DATE ( 2022, 20, 6 ) ;
#102 = CARTESIAN_POINT ( 'NONE',  ( 0.000000000000000000, 0.000000000000000000, 5.000000000000000000 ) ) ;
#103 = TOROIDAL_SURFACE ( 'NONE', #27, 3.450000000000000178, 0.2000000000000000111 ) ;
#104 = CARTESIAN_POINT ( 'NONE',  ( 0.000000000000000000, 0.000000000000000000, 205.0000000000000284 ) ) ;
#105 = CARTESIAN_POINT ( 'NONE',  ( 3.450000000000000178, 0.000000000000000000, 5.000000000000005329 ) ) ;
#106 = AXIS2_PLACEMENT_3D ( 'NONE', #53, #212, #87 ) ;
#107 = DIRECTION ( 'NONE',  ( 0.000000000000000000, 0.000000000000000000, 1.000000000000000000 ) ) ;
#108 = CC_DESIGN_PERSON_AND_ORGANIZATION_ASSIGNMENT ( #302, #257, ( #158 ) ) ;
#109 = EDGE_LOOP ( 'NONE', ( #115, #136, #10, #90 ) ) ;
#110 = FACE_OUTER_BOUND ( 'NONE', #294, .T. ) ;
#111 = ORIENTED_EDGE ( 'NONE', *, *, #6, .T. ) ;
#112 = DIRECTION ( 'NONE',  ( 1.000000000000000000, 0.000000000000000000, 0.000000000000000000 ) ) ;
#113 = ORIENTED_EDGE ( 'NONE', *, *, #2, .F. ) ;
#114 = CC_DESIGN_PERSON_AND_ORGANIZATION_ASSIGNMENT ( #97, #218, ( #158 ) ) ;
#115 = ORIENTED_EDGE ( 'NONE', *, *, #64, .F. ) ;
#116 = FACE_OUTER_BOUND ( 'NONE', #26, .T. ) ;
#117 = DATE_AND_TIME ( #121, #100 ) ;
#118 = CIRCLE ( 'NONE', #181, 6.000000000000000888 ) ;
#119 = DIRECTION ( 'NONE',  ( 1.000000000000000000, 0.000000000000000000, 0.000000000000000000 ) ) ;
#120 = APPROVAL ( #173, 'NEURÈENÝ' ) ;
#121 = CALENDAR_DATE ( 2022, 20, 6 ) ;
#122 = CARTESIAN_POINT ( 'NONE',  ( 0.000000000000000000, 0.000000000000000000, 5.000000000000000000 ) ) ;
#123 = SHAPE_DEFINITION_REPRESENTATION ( #37, #84 ) ;
#124 = MECHANICAL_CONTEXT ( 'NONE', #224, 'mechanical' ) ;
#125 = LINE ( 'NONE', #217, #63 ) ;
#126 = PERSON_AND_ORGANIZATION ( #133, #267 ) ;
#127 = DIRECTION ( 'NONE',  ( 0.000000000000000000, 0.000000000000000000, 1.000000000000000000 ) ) ;
#128 = CC_DESIGN_APPROVAL ( #36, ( #178 ) ) ;
#129 = DIRECTION ( 'NONE',  ( 1.000000000000000000, 0.000000000000000000, 0.000000000000000000 ) ) ;
#130 = LINE ( 'NONE', #172, #255 ) ;
#131 = CIRCLE ( 'NONE', #51, 3.450000000000000178 ) ;
#132 = DIRECTION ( 'NONE',  ( 1.000000000000000000, 0.000000000000000000, 0.000000000000000000 ) ) ;
#133 = PERSON ( 'NEURÈENÝ', 'NEURÈENÝ', 'NEURÈENÝ', ('NEURÈENÝ'), ('NEURÈENÝ'), ('NEURÈENÝ') ) ;
#134 = CC_DESIGN_PERSON_AND_ORGANIZATION_ASSIGNMENT ( #126, #299, ( #185 ) ) ;
#135 = CLOSED_SHELL ( 'NONE', ( #54, #275, #19, #254, #14, #25, #205, #290, #50 ) ) ;
#136 = ORIENTED_EDGE ( 'NONE', *, *, #240, .T. ) ;
#137 = LOCAL_TIME ( 11, 54, 35.00000000000000000, #304 ) ;
#138 = LOCAL_TIME ( 11, 54, 35.00000000000000000, #281 ) ;
#139 = ORIENTED_EDGE ( 'NONE', *, *, #240, .F. ) ;
#140 = EDGE_CURVE ( 'NONE', #232, #274, #298, .T. ) ;
#141 = DIRECTION ( 'NONE',  ( -1.000000000000000000, 0.000000000000000000, 0.000000000000000000 ) ) ;
#142 = ORIENTED_EDGE ( 'NONE', *, *, #159, .T. ) ;
#143 = CARTESIAN_POINT ( 'NONE',  ( 0.000000000000000000, 0.000000000000000000, 5.000000000000000000 ) ) ;
#144 = EDGE_CURVE ( 'NONE', #295, #196, #241, .T. ) ;
#145 = DIRECTION ( 'NONE',  ( 1.000000000000000000, 0.000000000000000000, 0.000000000000000000 ) ) ;
#146 = TOROIDAL_SURFACE ( 'NONE', #34, 3.450000000000000178, 0.2000000000000000111 ) ;
#147 = DIRECTION ( 'NONE',  ( 1.000000000000000000, 0.000000000000000000, -0.000000000000000000 ) ) ;
#148 = APPROVAL_DATE_TIME ( #265, #36 ) ;
#149 = DIRECTION ( 'NONE',  ( 1.000000000000000000, 0.000000000000000000, 0.000000000000000000 ) ) ;
#150 = DIRECTION ( 'NONE',  ( 0.000000000000000000, 0.000000000000000000, 1.000000000000000000 ) ) ;
#151 = DATE_AND_TIME ( #72, #277 ) ;
#152 = EDGE_LOOP ( 'NONE', ( #139, #231, #297, #236 ) ) ;
#153 = CC_DESIGN_PERSON_AND_ORGANIZATION_ASSIGNMENT ( #45, #94, ( #178 ) ) ;
#154 = CYLINDRICAL_SURFACE ( 'NONE', #221, 6.000000000000000888 ) ;
#155 = APPROVAL_ROLE ( '' ) ;
#156 = FACE_OUTER_BOUND ( 'NONE', #80, .T. ) ;
#157 = CARTESIAN_POINT ( 'NONE',  ( 0.000000000000000000, 0.000000000000000000, 205.0000000000000284 ) ) ;
#158 = PRODUCT_DEFINITION_FORMATION_WITH_SPECIFIED_SOURCE ( 'LIBOVOLNÝ', '', #86, .NOT_KNOWN. ) ;
#159 = EDGE_CURVE ( 'NONE', #5, #82, #188, .T. ) ;
#160 = DIRECTION ( 'NONE',  ( 0.000000000000000000, 0.000000000000000000, 1.000000000000000000 ) ) ;
#161 = EDGE_LOOP ( 'NONE', ( #7, #83 ) ) ;
#162 = AXIS2_PLACEMENT_3D ( 'NONE', #104, #266, #129 ) ;
#163 = ORIENTED_EDGE ( 'NONE', *, *, #79, .F. ) ;
#164 = FACE_OUTER_BOUND ( 'NONE', #203, .T. ) ;
#165 = CARTESIAN_POINT ( 'NONE',  ( 0.000000000000000000, 0.000000000000000000, 0.000000000000000000 ) ) ;
#166 = PERSON_AND_ORGANIZATION ( #133, #267 ) ;
#167 = EDGE_LOOP ( 'NONE', ( #57, #111, #233, #253 ) ) ;
#168 = DATE_AND_TIME ( #70, #268 ) ;
#169 = CYLINDRICAL_SURFACE ( 'NONE', #174, 6.000000000000000888 ) ;
#170 = FACE_OUTER_BOUND ( 'NONE', #167, .T. ) ;
#171 = APPROVAL ( #67, 'NEURÈENÝ' ) ;
#172 = CARTESIAN_POINT ( 'NONE',  ( 6.000000000000000888, 7.347880794884120722E-16, 5.000000000000000000 ) ) ;
#173 = APPROVAL_STATUS ( 'not_yet_approved' ) ;
#174 = AXIS2_PLACEMENT_3D ( 'NONE', #143, #11, #9 ) ;
#175 = DIRECTION ( 'NONE',  ( 1.000000000000000000, 0.000000000000000000, 0.000000000000000000 ) ) ;
#176 = CARTESIAN_POINT ( 'NONE',  ( 0.000000000000000000, 0.000000000000000000, 5.000000000000000000 ) ) ;
#177 = CYLINDRICAL_SURFACE ( 'NONE', #69, 3.250000000000000444 ) ;
#178 = SECURITY_CLASSIFICATION ( '', '', #194 ) ;
#179 = CARTESIAN_POINT ( 'NONE',  ( 0.000000000000000000, 0.000000000000000000, 205.0000000000000284 ) ) ;
#180 = VERTEX_POINT ( 'NONE', #74 ) ;
#181 = AXIS2_PLACEMENT_3D ( 'NONE', #301, #239, #16 ) ;
#182 = ORIENTED_EDGE ( 'NONE', *, *, #92, .F. ) ;
#183 = EDGE_LOOP ( 'NONE', ( #213, #62 ) ) ;
#184 =( NAMED_UNIT ( * ) SI_UNIT ( $, .STERADIAN. ) SOLID_ANGLE_UNIT ( ) );
#185 = PRODUCT_DEFINITION ( 'NEZNÁMÝ', '', #158, #28 ) ;
#186 = ORIENTED_EDGE ( 'NONE', *, *, #6, .F. ) ;
#187 = COORDINATED_UNIVERSAL_TIME_OFFSET ( 1, 0, .AHEAD. ) ;
#188 = CIRCLE ( 'NONE', #58, 6.000000000000000888 ) ;
#189 = CARTESIAN_POINT ( 'NONE',  ( 0.000000000000000000, 0.000000000000000000, 5.000000000000000000 ) ) ;
#190 = PERSON_AND_ORGANIZATION ( #133, #267 ) ;
#191 = EDGE_CURVE ( 'NONE', #295, #29, #269, .T. ) ;
#192 = APPLICATION_PROTOCOL_DEFINITION ( 'international standard', 'config_control_design', 1994, #211 ) ;
#193 = DIRECTION ( 'NONE',  ( 0.000000000000000000, 0.000000000000000000, 1.000000000000000000 ) ) ;
#194 = SECURITY_CLASSIFICATION_LEVEL ( 'unclassified' ) ;
#195 = APPROVAL_ROLE ( '' ) ;
#196 = VERTEX_POINT ( 'NONE', #24 ) ;
#197 = DIRECTION ( 'NONE',  ( -0.000000000000000000, -0.000000000000000000, -1.000000000000000000 ) ) ;
#198 = CIRCLE ( 'NONE', #270, 0.2000000000000000944 ) ;
#199 = DIRECTION ( 'NONE',  ( 0.000000000000000000, 0.000000000000000000, 1.000000000000000000 ) ) ;
#200 = VECTOR ( 'NONE', #245, 1000.000000000000000 ) ;
#201 = DIRECTION ( 'NONE',  ( 1.000000000000000000, 0.000000000000000000, 0.000000000000000000 ) ) ;
#202 = CC_DESIGN_APPROVAL ( #171, ( #185 ) ) ;
#203 = EDGE_LOOP ( 'NONE', ( #142, #85 ) ) ;
#204 = ORIENTED_EDGE ( 'NONE', *, *, #273, .F. ) ;
#205 = ADVANCED_FACE ( 'NONE', ( #156 ), #47, .T. ) ;
#206 = UNCERTAINTY_MEASURE_WITH_UNIT (LENGTH_MEASURE( 1.000000000000000082E-05 ), #89, 'distance_accuracy_value', 'NONE');
#207 = AXIS2_PLACEMENT_3D ( 'NONE', #165, #150, #147 ) ;
#208 = ORIENTED_EDGE ( 'NONE', *, *, #2, .T. ) ;
#209 = AXIS2_PLACEMENT_3D ( 'NONE', #260, #42, #149 ) ;
#210 = PERSON_AND_ORGANIZATION ( #133, #267 ) ;
#211 = APPLICATION_CONTEXT ( 'configuration controlled 3d designs of mechanical parts and assemblies' ) ;
#212 = DIRECTION ( 'NONE',  ( 0.000000000000000000, -1.000000000000000000, 0.000000000000000000 ) ) ;
#213 = ORIENTED_EDGE ( 'NONE', *, *, #140, .T. ) ;
#214 = CIRCLE ( 'NONE', #248, 6.000000000000000888 ) ;
#215 = CARTESIAN_POINT ( 'NONE',  ( 0.000000000000000000, 0.000000000000000000, 5.200000000000009948 ) ) ;
#216 = CARTESIAN_POINT ( 'NONE',  ( 0.000000000000000000, 0.000000000000000000, 5.200000000000009948 ) ) ;
#217 = CARTESIAN_POINT ( 'NONE',  ( -6.000000000000000888, 0.000000000000000000, 5.000000000000000000 ) ) ;
#218 = PERSON_AND_ORGANIZATION_ROLE ( 'creator' ) ;
#219 = APPROVAL_DATE_TIME ( #98, #171 ) ;
#220 = CARTESIAN_POINT ( 'NONE',  ( 6.000000000000000888, 7.347880794884120722E-16, 5.000000000000000000 ) ) ;
#221 = AXIS2_PLACEMENT_3D ( 'NONE', #102, #197, #287 ) ;
#222 = EDGE_CURVE ( 'NONE', #196, #278, #242, .T. ) ;
#223 = DIRECTION ( 'NONE',  ( -0.000000000000000000, -0.000000000000000000, -1.000000000000000000 ) ) ;
#224 = APPLICATION_CONTEXT ( 'configuration controlled 3d designs of mechanical parts and assemblies' ) ;
#225 = CARTESIAN_POINT ( 'NONE',  ( 0.000000000000000000, 0.000000000000000000, 5.000000000000000000 ) ) ;
#226 = MANIFOLD_SOLID_BREP ( 'Zaoblit1', #135 ) ;
#227 = CC_DESIGN_PERSON_AND_ORGANIZATION_ASSIGNMENT ( #210, #95, ( #86 ) ) ;
#228 = CARTESIAN_POINT ( 'NONE',  ( -3.250000000000000444, 0.000000000000000000, 205.0000000000000284 ) ) ;
#229 = ORIENTED_EDGE ( 'NONE', *, *, #292, .T. ) ;
#230 = ORIENTED_EDGE ( 'NONE', *, *, #191, .F. ) ;
#231 = ORIENTED_EDGE ( 'NONE', *, *, #159, .F. ) ;
#232 = VERTEX_POINT ( 'NONE', #105 ) ;
#233 = ORIENTED_EDGE ( 'NONE', *, *, #140, .F. ) ;
#234 = APPROVAL_PERSON_ORGANIZATION ( #166, #120, #61 ) ;
#235 = EDGE_CURVE ( 'NONE', #196, #295, #77, .T. ) ;
#236 = ORIENTED_EDGE ( 'NONE', *, *, #79, .T. ) ;
#237 = CARTESIAN_POINT ( 'NONE',  ( -3.250000000000000444, 0.000000000000000000, 5.200000000000009948 ) ) ;
#238 = AXIS2_PLACEMENT_3D ( 'NONE', #76, #289, #132 ) ;
#239 = DIRECTION ( 'NONE',  ( 0.000000000000000000, 0.000000000000000000, 1.000000000000000000 ) ) ;
#240 = EDGE_CURVE ( 'NONE', #82, #251, #130, .T. ) ;
#241 = CIRCLE ( 'NONE', #162, 3.250000000000000444 ) ;
#242 = LINE ( 'NONE', #21, #12 ) ;
#243 = DIRECTION ( 'NONE',  ( -0.000000000000000000, -0.000000000000000000, -1.000000000000000000 ) ) ;
#244 = AXIS2_PLACEMENT_3D ( 'NONE', #305, #199, #175 ) ;
#245 = DIRECTION ( 'NONE',  ( -0.000000000000000000, -0.000000000000000000, -1.000000000000000000 ) ) ;
#246 = DIRECTION ( 'NONE',  ( 1.000000000000000000, 0.000000000000000000, -0.000000000000000000 ) ) ;
#247 = EDGE_CURVE ( 'NONE', #29, #278, #18, .T. ) ;
#248 = AXIS2_PLACEMENT_3D ( 'NONE', #122, #13, #300 ) ;
#249 = APPROVAL_PERSON_ORGANIZATION ( #190, #36, #155 ) ;
#250 = CARTESIAN_POINT ( 'NONE',  ( 3.250000000000000444, 3.980102097228898231E-16, 5.200000000000009948 ) ) ;
#251 = VERTEX_POINT ( 'NONE', #49 ) ;
#252 = AXIS2_PLACEMENT_3D ( 'NONE', #189, #43, #256 ) ;
#253 = ORIENTED_EDGE ( 'NONE', *, *, #292, .F. ) ;
#254 = ADVANCED_FACE ( 'NONE', ( #264 ), #154, .T. ) ;
#255 = VECTOR ( 'NONE', #17, 1000.000000000000000 ) ;
#256 = DIRECTION ( 'NONE',  ( 1.000000000000000000, 0.000000000000000000, -0.000000000000000000 ) ) ;
#257 = PERSON_AND_ORGANIZATION_ROLE ( 'design_supplier' ) ;
#258 = PLANE ( 'NONE',  #207 ) ;
#259 = COORDINATED_UNIVERSAL_TIME_OFFSET ( 1, 0, .AHEAD. ) ;
#260 = CARTESIAN_POINT ( 'NONE',  ( 0.000000000000000000, 0.000000000000000000, 0.000000000000000000 ) ) ;
#261 = DIRECTION ( 'NONE',  ( 0.000000000000000000, 0.000000000000000000, 1.000000000000000000 ) ) ;
#262 = AXIS2_PLACEMENT_3D ( 'NONE', #3, #107, #201 ) ;
#263 = DIRECTION ( 'NONE',  ( -0.000000000000000000, -0.000000000000000000, -1.000000000000000000 ) ) ;
#264 = FACE_OUTER_BOUND ( 'NONE', #152, .T. ) ;
#265 = DATE_AND_TIME ( #101, #138 ) ;
#266 = DIRECTION ( 'NONE',  ( 0.000000000000000000, 0.000000000000000000, 1.000000000000000000 ) ) ;
#267 = ORGANIZATION ( 'NEURÈENÝ', 'NEURÈENÝ', '' ) ;
#268 = LOCAL_TIME ( 11, 54, 35.00000000000000000, #306 ) ;
#269 = LINE ( 'NONE', #228, #200 ) ;
#270 = AXIS2_PLACEMENT_3D ( 'NONE', #284, #38, #280 ) ;
#271 = DIRECTION ( 'NONE',  ( 1.000000000000000000, 0.000000000000000000, 0.000000000000000000 ) ) ;
#272 = PLANE ( 'NONE',  #291 ) ;
#273 = EDGE_CURVE ( 'NONE', #274, #232, #131, .T. ) ;
#274 = VERTEX_POINT ( 'NONE', #56 ) ;
#275 = ADVANCED_FACE ( 'NONE', ( #110 ), #177, .T. ) ;
#276 = ORIENTED_EDGE ( 'NONE', *, *, #247, .T. ) ;
#277 = LOCAL_TIME ( 11, 54, 35.00000000000000000, #259 ) ;
#278 = VERTEX_POINT ( 'NONE', #250 ) ;
#279 = PERSON_AND_ORGANIZATION ( #133, #267 ) ;
#280 = DIRECTION ( 'NONE',  ( -1.000000000000000000, 1.224646799147350742E-16, 0.000000000000000000 ) ) ;
#281 = COORDINATED_UNIVERSAL_TIME_OFFSET ( 1, 0, .AHEAD. ) ;
#282 =( GEOMETRIC_REPRESENTATION_CONTEXT ( 3 ) GLOBAL_UNCERTAINTY_ASSIGNED_CONTEXT ( ( #206 ) ) GLOBAL_UNIT_ASSIGNED_CONTEXT ( ( #89, #65, #184 ) ) REPRESENTATION_CONTEXT ( 'NONE', 'WORKASPACE' ) );
#283 = CALENDAR_DATE ( 2022, 20, 6 ) ;
#284 = CARTESIAN_POINT ( 'NONE',  ( -3.450000000000000178, 4.225031457058368824E-16, 5.200000000000009948 ) ) ;
#285 = CC_DESIGN_DATE_AND_TIME_ASSIGNMENT ( #151, #91, ( #185 ) ) ;
#286 = DATE_TIME_ROLE ( 'classification_date' ) ;
#287 = DIRECTION ( 'NONE',  ( -1.000000000000000000, 0.000000000000000000, 0.000000000000000000 ) ) ;
#288 = CIRCLE ( 'NONE', #244, 6.000000000000000888 ) ;
#289 = DIRECTION ( 'NONE',  ( 0.000000000000000000, 0.000000000000000000, 1.000000000000000000 ) ) ;
#290 = ADVANCED_FACE ( 'NONE', ( #33 ), #272, .T. ) ;
#291 = AXIS2_PLACEMENT_3D ( 'NONE', #52, #160, #246 ) ;
#292 = EDGE_CURVE ( 'NONE', #278, #232, #293, .T. ) ;
#293 = CIRCLE ( 'NONE', #106, 0.1999999999999996503 ) ;
#294 = EDGE_LOOP ( 'NONE', ( #66, #32, #208, #230 ) ) ;
#295 = VERTEX_POINT ( 'NONE', #59 ) ;
#296 = AXIS2_PLACEMENT_3D ( 'NONE', #96, #193, #93 ) ;
#297 = ORIENTED_EDGE ( 'NONE', *, *, #75, .T. ) ;
#298 = CIRCLE ( 'NONE', #78, 3.450000000000000178 ) ;
#299 = PERSON_AND_ORGANIZATION_ROLE ( 'creator' ) ;
#300 = DIRECTION ( 'NONE',  ( 1.000000000000000000, 0.000000000000000000, 0.000000000000000000 ) ) ;
#301 = CARTESIAN_POINT ( 'NONE',  ( 0.000000000000000000, 0.000000000000000000, 0.000000000000000000 ) ) ;
#302 = PERSON_AND_ORGANIZATION ( #133, #267 ) ;
#303 = CC_DESIGN_DATE_AND_TIME_ASSIGNMENT ( #168, #286, ( #178 ) ) ;
#304 = COORDINATED_UNIVERSAL_TIME_OFFSET ( 1, 0, .AHEAD. ) ;
#305 = CARTESIAN_POINT ( 'NONE',  ( 0.000000000000000000, 0.000000000000000000, 0.000000000000000000 ) ) ;
#306 = COORDINATED_UNIVERSAL_TIME_OFFSET ( 1, 0, .AHEAD. ) ;
#307 = CC_DESIGN_APPROVAL ( #120, ( #158 ) ) ;
ENDSEC;
END-ISO-10303-21;
