ISO-10303-21;
HEADER;
FILE_DESCRIPTION (( 'STEP AP203' ),
    '1' );
FILE_NAME ('e1c0.STEP',
    '2022-06-20T09:50:50',
    ( '' ),
    ( '' ),
    'SwSTEP 2.0',
    'SolidWorks 2019',
    '' );
FILE_SCHEMA (( 'CONFIG_CONTROL_DESIGN' ));
ENDSEC;

DATA;
#1 = CARTESIAN_POINT ( 'NONE',  ( 0.000000000000000000, 0.000000000000000000, 5.200000000000009948 ) ) ;
#2 = EDGE_CURVE ( 'NONE', #48, #243, #62, .T. ) ;
#3 = CARTESIAN_POINT ( 'NONE',  ( -3.949999999999999734, 4.837354856632044071E-16, 5.200000000000009948 ) ) ;
#4 = VERTEX_POINT ( 'NONE', #185 ) ;
#5 = PLANE ( 'NONE',  #23 ) ;
#6 = DIRECTION ( 'NONE',  ( -0.000000000000000000, -0.000000000000000000, -1.000000000000000000 ) ) ;
#7 = DIRECTION ( 'NONE',  ( 1.000000000000000000, 0.000000000000000000, 0.000000000000000000 ) ) ;
#8 = APPROVAL_ROLE ( '' ) ;
#9 = TOROIDAL_SURFACE ( 'NONE', #44, 3.949999999999999734, 0.2000000000000000111 ) ;
#10 = CALENDAR_DATE ( 2022, 20, 6 ) ;
#11 = COORDINATED_UNIVERSAL_TIME_OFFSET ( 1, 0, .AHEAD. ) ;
#12 = SECURITY_CLASSIFICATION_LEVEL ( 'unclassified' ) ;
#13 = AXIS2_PLACEMENT_3D ( 'NONE', #289, #196, #29 ) ;
#14 = DATE_AND_TIME ( #46, #295 ) ;
#15 = ORIENTED_EDGE ( 'NONE', *, *, #242, .T. ) ;
#16 = CARTESIAN_POINT ( 'NONE',  ( -6.000000000000000888, 0.000000000000000000, 0.000000000000000000 ) ) ;
#17 = CARTESIAN_POINT ( 'NONE',  ( 0.000000000000000000, 0.000000000000000000, 255.0000000000000000 ) ) ;
#18 = ORIENTED_EDGE ( 'NONE', *, *, #160, .T. ) ;
#19 = ORIENTED_EDGE ( 'NONE', *, *, #235, .T. ) ;
#20 = DIRECTION ( 'NONE',  ( 1.000000000000000000, 0.000000000000000000, -0.000000000000000000 ) ) ;
#21 = ORIENTED_EDGE ( 'NONE', *, *, #45, .F. ) ;
#22 = PLANE ( 'NONE',  #132 ) ;
#23 = AXIS2_PLACEMENT_3D ( 'NONE', #193, #194, #74 ) ;
#24 = EDGE_LOOP ( 'NONE', ( #163, #282, #47, #303 ) ) ;
#25 = ADVANCED_FACE ( 'NONE', ( #183 ), #111, .F. ) ;
#26 = CARTESIAN_POINT ( 'NONE',  ( 0.000000000000000000, 0.000000000000000000, 0.000000000000000000 ) ) ;
#27 = ORIENTED_EDGE ( 'NONE', *, *, #206, .F. ) ;
#28 = DIRECTION ( 'NONE',  ( 1.000000000000000000, 0.000000000000000000, 0.000000000000000000 ) ) ;
#29 = DIRECTION ( 'NONE',  ( -1.000000000000000000, 0.000000000000000000, 0.000000000000000000 ) ) ;
#30 = AXIS2_PLACEMENT_3D ( 'NONE', #1, #53, #28 ) ;
#31 = FACE_OUTER_BOUND ( 'NONE', #260, .T. ) ;
#32 = MANIFOLD_SOLID_BREP ( 'Zaoblit1', #195 ) ;
#33 = ADVANCED_FACE ( 'NONE', ( #67 ), #301, .T. ) ;
#34 = MECHANICAL_CONTEXT ( 'NONE', #225, 'mechanical' ) ;
#35 = CIRCLE ( 'NONE', #96, 6.000000000000000888 ) ;
#36 = DATE_TIME_ROLE ( 'creation_date' ) ;
#37 = PERSON_AND_ORGANIZATION_ROLE ( 'design_supplier' ) ;
#38 = CC_DESIGN_PERSON_AND_ORGANIZATION_ASSIGNMENT ( #158, #154, ( #272 ) ) ;
#39 = AXIS2_PLACEMENT_3D ( 'NONE', #169, #174, #218 ) ;
#40 = ORIENTED_EDGE ( 'NONE', *, *, #298, .F. ) ;
#41 = DIRECTION ( 'NONE',  ( 0.000000000000000000, 0.000000000000000000, 1.000000000000000000 ) ) ;
#42 = APPROVAL_ROLE ( '' ) ;
#43 = AXIS2_PLACEMENT_3D ( 'NONE', #159, #41, #92 ) ;
#44 = AXIS2_PLACEMENT_3D ( 'NONE', #133, #99, #307 ) ;
#45 = EDGE_CURVE ( 'NONE', #188, #48, #72, .T. ) ;
#46 = CALENDAR_DATE ( 2022, 20, 6 ) ;
#47 = ORIENTED_EDGE ( 'NONE', *, *, #45, .T. ) ;
#48 = VERTEX_POINT ( 'NONE', #16 ) ;
#49 = CARTESIAN_POINT ( 'NONE',  ( 6.000000000000000888, 7.347880794884120722E-16, 0.000000000000000000 ) ) ;
#50 = PRODUCT_RELATED_PRODUCT_CATEGORY ( 'detail', '', ( #272 ) ) ;
#51 = CARTESIAN_POINT ( 'NONE',  ( 6.000000000000000888, 7.347880794884120722E-16, 5.000000000000000000 ) ) ;
#52 = CIRCLE ( 'NONE', #166, 3.750000000000000000 ) ;
#53 = DIRECTION ( 'NONE',  ( 0.000000000000000000, 0.000000000000000000, 1.000000000000000000 ) ) ;
#54 = FACE_OUTER_BOUND ( 'NONE', #165, .T. ) ;
#55 = APPROVAL ( #271, 'NEURÈENÝ' ) ;
#56 = CARTESIAN_POINT ( 'NONE',  ( 0.000000000000000000, 0.000000000000000000, 0.000000000000000000 ) ) ;
#57 = AXIS2_PLACEMENT_3D ( 'NONE', #294, #110, #203 ) ;
#58 = UNCERTAINTY_MEASURE_WITH_UNIT (LENGTH_MEASURE( 1.000000000000000082E-05 ), #64, 'distance_accuracy_value', 'NONE');
#59 = PERSON_AND_ORGANIZATION_ROLE ( 'creator' ) ;
#60 = EDGE_CURVE ( 'NONE', #208, #279, #273, .T. ) ;
#61 = PERSON_AND_ORGANIZATION ( #105, #102 ) ;
#62 = CIRCLE ( 'NONE', #43, 6.000000000000000888 ) ;
#63 = CIRCLE ( 'NONE', #268, 0.1999999999999996503 ) ;
#64 =( LENGTH_UNIT ( ) NAMED_UNIT ( * ) SI_UNIT ( .MILLI., .METRE. ) );
#65 = CYLINDRICAL_SURFACE ( 'NONE', #13, 6.000000000000000888 ) ;
#66 = AXIS2_PLACEMENT_3D ( 'NONE', #3, #292, #267 ) ;
#67 = FACE_OUTER_BOUND ( 'NONE', #168, .T. ) ;
#68 = PERSON_AND_ORGANIZATION_ROLE ( 'classification_officer' ) ;
#69 = EDGE_LOOP ( 'NONE', ( #93, #123 ) ) ;
#70 = ADVANCED_FACE ( 'NONE', ( #236 ), #120, .T. ) ;
#71 = COORDINATED_UNIVERSAL_TIME_OFFSET ( 1, 0, .AHEAD. ) ;
#72 = LINE ( 'NONE', #258, #100 ) ;
#73 = DIRECTION ( 'NONE',  ( 1.000000000000000000, 0.000000000000000000, 0.000000000000000000 ) ) ;
#74 = DIRECTION ( 'NONE',  ( 1.000000000000000000, 0.000000000000000000, -0.000000000000000000 ) ) ;
#75 = CARTESIAN_POINT ( 'NONE',  ( 3.750000000000000000, 4.592425496802573972E-16, 5.200000000000009948 ) ) ;
#76 = LINE ( 'NONE', #51, #210 ) ;
#77 = LOCAL_TIME ( 11, 50, 50.00000000000000000, #115 ) ;
#78 = ORIENTED_EDGE ( 'NONE', *, *, #2, .F. ) ;
#79 = CARTESIAN_POINT ( 'NONE',  ( -6.000000000000000888, 0.000000000000000000, 5.000000000000000000 ) ) ;
#80 = CC_DESIGN_PERSON_AND_ORGANIZATION_ASSIGNMENT ( #162, #68, ( #302 ) ) ;
#81 = DIRECTION ( 'NONE',  ( 1.000000000000000000, 0.000000000000000000, -0.000000000000000000 ) ) ;
#82 = APPLICATION_PROTOCOL_DEFINITION ( 'international standard', 'config_control_design', 1994, #212 ) ;
#83 = CC_DESIGN_APPROVAL ( #157, ( #113 ) ) ;
#84 = DIRECTION ( 'NONE',  ( 1.000000000000000000, 0.000000000000000000, 0.000000000000000000 ) ) ;
#85 = ADVANCED_FACE ( 'NONE', ( #283 ), #65, .T. ) ;
#86 = APPROVAL_DATE_TIME ( #201, #55 ) ;
#87 = CARTESIAN_POINT ( 'NONE',  ( -3.750000000000000000, 0.000000000000000000, 255.0000000000000000 ) ) ;
#88 = ADVANCED_BREP_SHAPE_REPRESENTATION ( 'e1c0', ( #32, #176 ), #299 ) ;
#89 = EDGE_LOOP ( 'NONE', ( #131, #261 ) ) ;
#90 = ORIENTED_EDGE ( 'NONE', *, *, #103, .F. ) ;
#91 = LOCAL_TIME ( 11, 50, 50.00000000000000000, #297 ) ;
#92 = DIRECTION ( 'NONE',  ( 1.000000000000000000, 0.000000000000000000, 0.000000000000000000 ) ) ;
#93 = ORIENTED_EDGE ( 'NONE', *, *, #192, .T. ) ;
#94 = EDGE_LOOP ( 'NONE', ( #78, #121 ) ) ;
#95 = ORIENTED_EDGE ( 'NONE', *, *, #167, .F. ) ;
#96 = AXIS2_PLACEMENT_3D ( 'NONE', #266, #104, #221 ) ;
#97 = FACE_OUTER_BOUND ( 'NONE', #94, .T. ) ;
#98 = FACE_OUTER_BOUND ( 'NONE', #89, .T. ) ;
#99 = DIRECTION ( 'NONE',  ( 0.000000000000000000, 0.000000000000000000, 1.000000000000000000 ) ) ;
#100 = VECTOR ( 'NONE', #285, 1000.000000000000000 ) ;
#101 = CYLINDRICAL_SURFACE ( 'NONE', #39, 3.750000000000000000 ) ;
#102 = ORGANIZATION ( 'NEURÈENÝ', 'NEURÈENÝ', '' ) ;
#103 = EDGE_CURVE ( 'NONE', #4, #188, #35, .T. ) ;
#104 = DIRECTION ( 'NONE',  ( 0.000000000000000000, 0.000000000000000000, 1.000000000000000000 ) ) ;
#105 = PERSON ( 'NEURÈENÝ', 'NEURÈENÝ', 'NEURÈENÝ', ('NEURÈENÝ'), ('NEURÈENÝ'), ('NEURÈENÝ') ) ;
#106 = APPLICATION_PROTOCOL_DEFINITION ( 'international standard', 'config_control_design', 1994, #225 ) ;
#107 = CALENDAR_DATE ( 2022, 20, 6 ) ;
#108 = CYLINDRICAL_SURFACE ( 'NONE', #57, 6.000000000000000888 ) ;
#109 = APPROVAL_DATE_TIME ( #296, #157 ) ;
#110 = DIRECTION ( 'NONE',  ( -0.000000000000000000, -0.000000000000000000, -1.000000000000000000 ) ) ;
#111 = TOROIDAL_SURFACE ( 'NONE', #237, 3.949999999999999734, 0.2000000000000000111 ) ;
#112 = CC_DESIGN_SECURITY_CLASSIFICATION ( #302, ( #253 ) ) ;
#113 = PRODUCT_DEFINITION ( 'NEZNÁMÝ', '', #253, #202 ) ;
#114 = APPROVAL_DATE_TIME ( #164, #171 ) ;
#115 = COORDINATED_UNIVERSAL_TIME_OFFSET ( 1, 0, .AHEAD. ) ;
#116 = EDGE_LOOP ( 'NONE', ( #90, #18, #15, #21 ) ) ;
#117 = ADVANCED_FACE ( 'NONE', ( #31 ), #9, .F. ) ;
#118 = VERTEX_POINT ( 'NONE', #175 ) ;
#119 = CC_DESIGN_APPROVAL ( #171, ( #302 ) ) ;
#120 = PLANE ( 'NONE',  #284 ) ;
#121 = ORIENTED_EDGE ( 'NONE', *, *, #242, .F. ) ;
#122 = ORIENTED_EDGE ( 'NONE', *, *, #306, .F. ) ;
#123 = ORIENTED_EDGE ( 'NONE', *, *, #60, .T. ) ;
#124 = ORIENTED_EDGE ( 'NONE', *, *, #180, .T. ) ;
#125 = VECTOR ( 'NONE', #204, 1000.000000000000000 ) ;
#126 = CARTESIAN_POINT ( 'NONE',  ( -3.750000000000000000, 0.000000000000000000, 5.200000000000009948 ) ) ;
#127 = DIRECTION ( 'NONE',  ( 0.000000000000000000, 0.000000000000000000, 1.000000000000000000 ) ) ;
#128 = ORIENTED_EDGE ( 'NONE', *, *, #60, .F. ) ;
#129 = CC_DESIGN_DATE_AND_TIME_ASSIGNMENT ( #136, #36, ( #113 ) ) ;
#130 = CARTESIAN_POINT ( 'NONE',  ( 0.000000000000000000, 0.000000000000000000, 5.000000000000000000 ) ) ;
#131 = ORIENTED_EDGE ( 'NONE', *, *, #248, .T. ) ;
#132 = AXIS2_PLACEMENT_3D ( 'NONE', #56, #191, #81 ) ;
#133 = CARTESIAN_POINT ( 'NONE',  ( 0.000000000000000000, 0.000000000000000000, 5.200000000000009948 ) ) ;
#134 = CARTESIAN_POINT ( 'NONE',  ( 0.000000000000000000, 0.000000000000000000, 0.000000000000000000 ) ) ;
#135 = CC_DESIGN_DATE_AND_TIME_ASSIGNMENT ( #14, #207, ( #302 ) ) ;
#136 = DATE_AND_TIME ( #155, #91 ) ;
#137 = AXIS2_PLACEMENT_3D ( 'NONE', #130, #127, #148 ) ;
#138 = CARTESIAN_POINT ( 'NONE',  ( -3.750000000000000000, 0.000000000000000000, 255.0000000000000000 ) ) ;
#139 = CC_DESIGN_PERSON_AND_ORGANIZATION_ASSIGNMENT ( #275, #37, ( #253 ) ) ;
#140 = CIRCLE ( 'NONE', #137, 6.000000000000000888 ) ;
#141 = VERTEX_POINT ( 'NONE', #126 ) ;
#142 = ADVANCED_FACE ( 'NONE', ( #97 ), #22, .F. ) ;
#143 = ORIENTED_EDGE ( 'NONE', *, *, #167, .T. ) ;
#144 = SHAPE_DEFINITION_REPRESENTATION ( #255, #88 ) ;
#145 = DIRECTION ( 'NONE',  ( -0.000000000000000000, -0.000000000000000000, -1.000000000000000000 ) ) ;
#146 = VERTEX_POINT ( 'NONE', #247 ) ;
#147 = ORIENTED_EDGE ( 'NONE', *, *, #192, .F. ) ;
#148 = DIRECTION ( 'NONE',  ( 1.000000000000000000, 0.000000000000000000, 0.000000000000000000 ) ) ;
#149 = CARTESIAN_POINT ( 'NONE',  ( 3.949999999999999734, 0.000000000000000000, 5.200000000000009948 ) ) ;
#150 = DIRECTION ( 'NONE',  ( 0.000000000000000000, 0.000000000000000000, 1.000000000000000000 ) ) ;
#151 = ORIENTED_EDGE ( 'NONE', *, *, #298, .T. ) ;
#152 = CARTESIAN_POINT ( 'NONE',  ( 0.000000000000000000, 0.000000000000000000, 255.0000000000000000 ) ) ;
#153 = DIRECTION ( 'NONE',  ( 0.000000000000000000, 0.000000000000000000, 1.000000000000000000 ) ) ;
#154 = PERSON_AND_ORGANIZATION_ROLE ( 'design_owner' ) ;
#155 = CALENDAR_DATE ( 2022, 20, 6 ) ;
#156 = CC_DESIGN_APPROVAL ( #55, ( #253 ) ) ;
#157 = APPROVAL ( #251, 'NEURÈENÝ' ) ;
#158 = PERSON_AND_ORGANIZATION ( #105, #102 ) ;
#159 = CARTESIAN_POINT ( 'NONE',  ( 0.000000000000000000, 0.000000000000000000, 0.000000000000000000 ) ) ;
#160 = EDGE_CURVE ( 'NONE', #4, #243, #76, .T. ) ;
#161 = ORIENTED_EDGE ( 'NONE', *, *, #187, .F. ) ;
#162 = PERSON_AND_ORGANIZATION ( #105, #102 ) ;
#163 = ORIENTED_EDGE ( 'NONE', *, *, #160, .F. ) ;
#164 = DATE_AND_TIME ( #233, #77 ) ;
#165 = EDGE_LOOP ( 'NONE', ( #305, #147, #151, #19 ) ) ;
#166 = AXIS2_PLACEMENT_3D ( 'NONE', #216, #153, #288 ) ;
#167 = EDGE_CURVE ( 'NONE', #215, #146, #63, .T. ) ;
#168 = EDGE_LOOP ( 'NONE', ( #128, #300, #124, #40 ) ) ;
#169 = CARTESIAN_POINT ( 'NONE',  ( 0.000000000000000000, 0.000000000000000000, 255.0000000000000000 ) ) ;
#170 = LINE ( 'NONE', #263, #238 ) ;
#171 = APPROVAL ( #239, 'NEURÈENÝ' ) ;
#172 = APPROVAL_PERSON_ORGANIZATION ( #281, #171, #42 ) ;
#173 = DIRECTION ( 'NONE',  ( 0.000000000000000000, 0.000000000000000000, -1.000000000000000000 ) ) ;
#174 = DIRECTION ( 'NONE',  ( -0.000000000000000000, -0.000000000000000000, -1.000000000000000000 ) ) ;
#175 = CARTESIAN_POINT ( 'NONE',  ( -3.949999999999999734, 4.837354856632044071E-16, 5.000000000000005329 ) ) ;
#176 = AXIS2_PLACEMENT_3D ( 'NONE', #134, #226, #7 ) ;
#177 = CARTESIAN_POINT ( 'NONE',  ( 0.000000000000000000, 0.000000000000000000, 5.000000000000000000 ) ) ;
#178 = PERSON_AND_ORGANIZATION ( #105, #102 ) ;
#179 = PERSON_AND_ORGANIZATION ( #105, #102 ) ;
#180 = EDGE_CURVE ( 'NONE', #215, #141, #190, .T. ) ;
#181 = FACE_OUTER_BOUND ( 'NONE', #24, .T. ) ;
#182 = ADVANCED_FACE ( 'NONE', ( #224, #98 ), #5, .T. ) ;
#183 = FACE_OUTER_BOUND ( 'NONE', #220, .T. ) ;
#184 = DIRECTION ( 'NONE',  ( -1.000000000000000000, 0.000000000000000000, 0.000000000000000000 ) ) ;
#185 = CARTESIAN_POINT ( 'NONE',  ( 6.000000000000000888, 7.347880794884120722E-16, 5.000000000000000000 ) ) ;
#186 = ORIENTED_EDGE ( 'NONE', *, *, #235, .F. ) ;
#187 = EDGE_CURVE ( 'NONE', #141, #118, #264, .T. ) ;
#188 = VERTEX_POINT ( 'NONE', #79 ) ;
#189 = EDGE_LOOP ( 'NONE', ( #232, #277 ) ) ;
#190 = CIRCLE ( 'NONE', #30, 3.750000000000000000 ) ;
#191 = DIRECTION ( 'NONE',  ( 0.000000000000000000, 0.000000000000000000, 1.000000000000000000 ) ) ;
#192 = EDGE_CURVE ( 'NONE', #279, #208, #245, .T. ) ;
#193 = CARTESIAN_POINT ( 'NONE',  ( 0.000000000000000000, 0.000000000000000000, 5.000000000000000000 ) ) ;
#194 = DIRECTION ( 'NONE',  ( 0.000000000000000000, 0.000000000000000000, 1.000000000000000000 ) ) ;
#195 = CLOSED_SHELL ( 'NONE', ( #25, #33, #85, #290, #182, #142, #213, #70, #117 ) ) ;
#196 = DIRECTION ( 'NONE',  ( -0.000000000000000000, -0.000000000000000000, -1.000000000000000000 ) ) ;
#197 = CARTESIAN_POINT ( 'NONE',  ( 0.000000000000000000, 0.000000000000000000, 5.000000000000000000 ) ) ;
#198 = LINE ( 'NONE', #138, #125 ) ;
#199 = APPROVAL_PERSON_ORGANIZATION ( #179, #55, #270 ) ;
#200 =( NAMED_UNIT ( * ) PLANE_ANGLE_UNIT ( ) SI_UNIT ( $, .RADIAN. ) );
#201 = DATE_AND_TIME ( #10, #205 ) ;
#202 = DESIGN_CONTEXT ( 'detailed design', #212, 'design' ) ;
#203 = DIRECTION ( 'NONE',  ( -1.000000000000000000, 0.000000000000000000, 0.000000000000000000 ) ) ;
#204 = DIRECTION ( 'NONE',  ( -0.000000000000000000, -0.000000000000000000, -1.000000000000000000 ) ) ;
#205 = LOCAL_TIME ( 11, 50, 50.00000000000000000, #229 ) ;
#206 = EDGE_CURVE ( 'NONE', #146, #118, #286, .T. ) ;
#207 = DATE_TIME_ROLE ( 'classification_date' ) ;
#208 = VERTEX_POINT ( 'NONE', #293 ) ;
#209 = DIRECTION ( 'NONE',  ( 0.000000000000000000, 0.000000000000000000, 1.000000000000000000 ) ) ;
#210 = VECTOR ( 'NONE', #6, 1000.000000000000000 ) ;
#211 = CARTESIAN_POINT ( 'NONE',  ( 0.000000000000000000, 0.000000000000000000, 255.0000000000000000 ) ) ;
#212 = APPLICATION_CONTEXT ( 'configuration controlled 3d designs of mechanical parts and assemblies' ) ;
#213 = ADVANCED_FACE ( 'NONE', ( #54 ), #101, .T. ) ;
#214 = CARTESIAN_POINT ( 'NONE',  ( 0.000000000000000000, 0.000000000000000000, 255.0000000000000000 ) ) ;
#215 = VERTEX_POINT ( 'NONE', #75 ) ;
#216 = CARTESIAN_POINT ( 'NONE',  ( 0.000000000000000000, 0.000000000000000000, 5.200000000000009948 ) ) ;
#217 = LOCAL_TIME ( 11, 50, 50.00000000000000000, #11 ) ;
#218 = DIRECTION ( 'NONE',  ( -1.000000000000000000, 0.000000000000000000, 0.000000000000000000 ) ) ;
#219 = DIRECTION ( 'NONE',  ( -0.000000000000000000, -0.000000000000000000, -1.000000000000000000 ) ) ;
#220 = EDGE_LOOP ( 'NONE', ( #186, #259, #27, #95 ) ) ;
#221 = DIRECTION ( 'NONE',  ( 1.000000000000000000, 0.000000000000000000, 0.000000000000000000 ) ) ;
#222 = AXIS2_PLACEMENT_3D ( 'NONE', #17, #209, #241 ) ;
#223 = CIRCLE ( 'NONE', #250, 6.000000000000000888 ) ;
#224 = FACE_BOUND ( 'NONE', #189, .T. ) ;
#225 = APPLICATION_CONTEXT ( 'configuration controlled 3d designs of mechanical parts and assemblies' ) ;
#226 = DIRECTION ( 'NONE',  ( 0.000000000000000000, 0.000000000000000000, 1.000000000000000000 ) ) ;
#227 = CC_DESIGN_PERSON_AND_ORGANIZATION_ASSIGNMENT ( #61, #230, ( #253 ) ) ;
#228 = CIRCLE ( 'NONE', #231, 3.949999999999999734 ) ;
#229 = COORDINATED_UNIVERSAL_TIME_OFFSET ( 1, 0, .AHEAD. ) ;
#230 = PERSON_AND_ORGANIZATION_ROLE ( 'creator' ) ;
#231 = AXIS2_PLACEMENT_3D ( 'NONE', #177, #252, #84 ) ;
#232 = ORIENTED_EDGE ( 'NONE', *, *, #206, .T. ) ;
#233 = CALENDAR_DATE ( 2022, 20, 6 ) ;
#234 = CARTESIAN_POINT ( 'NONE',  ( 0.000000000000000000, 0.000000000000000000, 5.200000000000009948 ) ) ;
#235 = EDGE_CURVE ( 'NONE', #141, #215, #52, .T. ) ;
#236 = FACE_OUTER_BOUND ( 'NONE', #69, .T. ) ;
#237 = AXIS2_PLACEMENT_3D ( 'NONE', #234, #257, #73 ) ;
#238 = VECTOR ( 'NONE', #219, 1000.000000000000000 ) ;
#239 = APPROVAL_STATUS ( 'not_yet_approved' ) ;
#240 = ORIENTED_EDGE ( 'NONE', *, *, #180, .F. ) ;
#241 = DIRECTION ( 'NONE',  ( 1.000000000000000000, 0.000000000000000000, 0.000000000000000000 ) ) ;
#242 = EDGE_CURVE ( 'NONE', #243, #48, #223, .T. ) ;
#243 = VERTEX_POINT ( 'NONE', #49 ) ;
#244 = DIRECTION ( 'NONE',  ( 0.000000000000000000, 0.000000000000000000, 1.000000000000000000 ) ) ;
#245 = CIRCLE ( 'NONE', #291, 3.750000000000000000 ) ;
#246 = DIRECTION ( 'NONE',  ( 1.000000000000000000, 0.000000000000000000, 0.000000000000000000 ) ) ;
#247 = CARTESIAN_POINT ( 'NONE',  ( 3.949999999999999734, 0.000000000000000000, 5.000000000000005329 ) ) ;
#248 = EDGE_CURVE ( 'NONE', #188, #4, #140, .T. ) ;
#249 = DIRECTION ( 'NONE',  ( 1.000000000000000000, 0.000000000000000000, 0.000000000000000000 ) ) ;
#250 = AXIS2_PLACEMENT_3D ( 'NONE', #26, #150, #262 ) ;
#251 = APPROVAL_STATUS ( 'not_yet_approved' ) ;
#252 = DIRECTION ( 'NONE',  ( -0.000000000000000000, -0.000000000000000000, -1.000000000000000000 ) ) ;
#253 = PRODUCT_DEFINITION_FORMATION_WITH_SPECIFIED_SOURCE ( 'LIBOVOLNÝ', '', #272, .NOT_KNOWN. ) ;
#254 = PERSON_AND_ORGANIZATION ( #105, #102 ) ;
#255 = PRODUCT_DEFINITION_SHAPE ( 'NONE', 'NONE',  #113 ) ;
#256 = AXIS2_PLACEMENT_3D ( 'NONE', #197, #265, #246 ) ;
#257 = DIRECTION ( 'NONE',  ( 0.000000000000000000, 0.000000000000000000, 1.000000000000000000 ) ) ;
#258 = CARTESIAN_POINT ( 'NONE',  ( -6.000000000000000888, 0.000000000000000000, 5.000000000000000000 ) ) ;
#259 = ORIENTED_EDGE ( 'NONE', *, *, #187, .T. ) ;
#260 = EDGE_LOOP ( 'NONE', ( #161, #240, #143, #122 ) ) ;
#261 = ORIENTED_EDGE ( 'NONE', *, *, #103, .T. ) ;
#262 = DIRECTION ( 'NONE',  ( 1.000000000000000000, 0.000000000000000000, 0.000000000000000000 ) ) ;
#263 = CARTESIAN_POINT ( 'NONE',  ( 3.750000000000000000, 4.592425496802573972E-16, 255.0000000000000000 ) ) ;
#264 = CIRCLE ( 'NONE', #66, 0.1999999999999996503 ) ;
#265 = DIRECTION ( 'NONE',  ( -0.000000000000000000, -0.000000000000000000, -1.000000000000000000 ) ) ;
#266 = CARTESIAN_POINT ( 'NONE',  ( 0.000000000000000000, 0.000000000000000000, 5.000000000000000000 ) ) ;
#267 = DIRECTION ( 'NONE',  ( -1.000000000000000000, 1.224646799147353454E-16, 0.000000000000000000 ) ) ;
#268 = AXIS2_PLACEMENT_3D ( 'NONE', #149, #287, #173 ) ;
#269 =( NAMED_UNIT ( * ) SI_UNIT ( $, .STERADIAN. ) SOLID_ANGLE_UNIT ( ) );
#270 = APPROVAL_ROLE ( '' ) ;
#271 = APPROVAL_STATUS ( 'not_yet_approved' ) ;
#272 = PRODUCT ( 'e1c0', 'e1c0', '', ( #34 ) ) ;
#273 = CIRCLE ( 'NONE', #222, 3.750000000000000000 ) ;
#274 = AXIS2_PLACEMENT_3D ( 'NONE', #214, #145, #184 ) ;
#275 = PERSON_AND_ORGANIZATION ( #105, #102 ) ;
#276 = EDGE_CURVE ( 'NONE', #208, #215, #170, .T. ) ;
#277 = ORIENTED_EDGE ( 'NONE', *, *, #306, .T. ) ;
#278 = APPROVAL_PERSON_ORGANIZATION ( #254, #157, #8 ) ;
#279 = VERTEX_POINT ( 'NONE', #87 ) ;
#280 = CC_DESIGN_PERSON_AND_ORGANIZATION_ASSIGNMENT ( #178, #59, ( #113 ) ) ;
#281 = PERSON_AND_ORGANIZATION ( #105, #102 ) ;
#282 = ORIENTED_EDGE ( 'NONE', *, *, #248, .F. ) ;
#283 = FACE_OUTER_BOUND ( 'NONE', #116, .T. ) ;
#284 = AXIS2_PLACEMENT_3D ( 'NONE', #211, #304, #20 ) ;
#285 = DIRECTION ( 'NONE',  ( -0.000000000000000000, -0.000000000000000000, -1.000000000000000000 ) ) ;
#286 = CIRCLE ( 'NONE', #256, 3.949999999999999734 ) ;
#287 = DIRECTION ( 'NONE',  ( 0.000000000000000000, -1.000000000000000000, 0.000000000000000000 ) ) ;
#288 = DIRECTION ( 'NONE',  ( 1.000000000000000000, 0.000000000000000000, 0.000000000000000000 ) ) ;
#289 = CARTESIAN_POINT ( 'NONE',  ( 0.000000000000000000, 0.000000000000000000, 5.000000000000000000 ) ) ;
#290 = ADVANCED_FACE ( 'NONE', ( #181 ), #108, .T. ) ;
#291 = AXIS2_PLACEMENT_3D ( 'NONE', #152, #244, #249 ) ;
#292 = DIRECTION ( 'NONE',  ( 1.224646799147353207E-16, 1.000000000000000000, -0.000000000000000000 ) ) ;
#293 = CARTESIAN_POINT ( 'NONE',  ( 3.750000000000000000, 4.592425496802573972E-16, 255.0000000000000000 ) ) ;
#294 = CARTESIAN_POINT ( 'NONE',  ( 0.000000000000000000, 0.000000000000000000, 5.000000000000000000 ) ) ;
#295 = LOCAL_TIME ( 11, 50, 50.00000000000000000, #71 ) ;
#296 = DATE_AND_TIME ( #107, #217 ) ;
#297 = COORDINATED_UNIVERSAL_TIME_OFFSET ( 1, 0, .AHEAD. ) ;
#298 = EDGE_CURVE ( 'NONE', #279, #141, #198, .T. ) ;
#299 =( GEOMETRIC_REPRESENTATION_CONTEXT ( 3 ) GLOBAL_UNCERTAINTY_ASSIGNED_CONTEXT ( ( #58 ) ) GLOBAL_UNIT_ASSIGNED_CONTEXT ( ( #64, #200, #269 ) ) REPRESENTATION_CONTEXT ( 'NONE', 'WORKASPACE' ) );
#300 = ORIENTED_EDGE ( 'NONE', *, *, #276, .T. ) ;
#301 = CYLINDRICAL_SURFACE ( 'NONE', #274, 3.750000000000000000 ) ;
#302 = SECURITY_CLASSIFICATION ( '', '', #12 ) ;
#303 = ORIENTED_EDGE ( 'NONE', *, *, #2, .T. ) ;
#304 = DIRECTION ( 'NONE',  ( 0.000000000000000000, 0.000000000000000000, 1.000000000000000000 ) ) ;
#305 = ORIENTED_EDGE ( 'NONE', *, *, #276, .F. ) ;
#306 = EDGE_CURVE ( 'NONE', #118, #146, #228, .T. ) ;
#307 = DIRECTION ( 'NONE',  ( 1.000000000000000000, 0.000000000000000000, 0.000000000000000000 ) ) ;
ENDSEC;
END-ISO-10303-21;
