ISO-10303-21;
HEADER;
FILE_DESCRIPTION (( 'STEP AP203' ),
    '1' );
FILE_NAME ('9a94.STEP',
    '2022-06-20T09:58:06',
    ( '' ),
    ( '' ),
    'SwSTEP 2.0',
    'SolidWorks 2019',
    '' );
FILE_SCHEMA (( 'CONFIG_CONTROL_DESIGN' ));
ENDSEC;

DATA;
#1 = CARTESIAN_POINT ( 'NONE',  ( 0.000000000000000000, 0.000000000000000000, 5.200000000000009948 ) ) ;
#2 = CC_DESIGN_DATE_AND_TIME_ASSIGNMENT ( #9, #108, ( #175 ) ) ;
#3 = CARTESIAN_POINT ( 'NONE',  ( 6.000000000000000888, 7.347880794884120722E-16, 5.000000000000000000 ) ) ;
#4 = PRODUCT ( '9a94', '9a94', '', ( #245 ) ) ;
#5 = VECTOR ( 'NONE', #148, 1000.000000000000000 ) ;
#6 = CARTESIAN_POINT ( 'NONE',  ( 3.000000000000000444, 3.673940397442060361E-16, 255.0000000000000000 ) ) ;
#7 = DIRECTION ( 'NONE',  ( -1.000000000000000000, 0.000000000000000000, 0.000000000000000000 ) ) ;
#8 = DESIGN_CONTEXT ( 'detailed design', #279, 'design' ) ;
#9 = DATE_AND_TIME ( #154, #84 ) ;
#10 = VERTEX_POINT ( 'NONE', #72 ) ;
#11 = EDGE_CURVE ( 'NONE', #201, #209, #149, .T. ) ;
#12 = AXIS2_PLACEMENT_3D ( 'NONE', #286, #237, #287 ) ;
#13 = EDGE_LOOP ( 'NONE', ( #75, #68, #113, #281 ) ) ;
#14 = PERSON_AND_ORGANIZATION ( #252, #292 ) ;
#15 = EDGE_LOOP ( 'NONE', ( #110, #246 ) ) ;
#16 =( GEOMETRIC_REPRESENTATION_CONTEXT ( 3 ) GLOBAL_UNCERTAINTY_ASSIGNED_CONTEXT ( ( #271 ) ) GLOBAL_UNIT_ASSIGNED_CONTEXT ( ( #31, #56, #127 ) ) REPRESENTATION_CONTEXT ( 'NONE', 'WORKASPACE' ) );
#17 = CARTESIAN_POINT ( 'NONE',  ( 0.000000000000000000, 0.000000000000000000, 0.000000000000000000 ) ) ;
#18 = VERTEX_POINT ( 'NONE', #259 ) ;
#19 = AXIS2_PLACEMENT_3D ( 'NONE', #165, #210, #73 ) ;
#20 = ADVANCED_BREP_SHAPE_REPRESENTATION ( '9a94', ( #194, #61 ), #16 ) ;
#21 = PLANE ( 'NONE',  #95 ) ;
#22 = CARTESIAN_POINT ( 'NONE',  ( 0.000000000000000000, 0.000000000000000000, 5.000000000000000000 ) ) ;
#23 = AXIS2_PLACEMENT_3D ( 'NONE', #265, #103, #220 ) ;
#24 = CARTESIAN_POINT ( 'NONE',  ( 0.000000000000000000, 0.000000000000000000, 5.000000000000000000 ) ) ;
#25 = EDGE_CURVE ( 'NONE', #209, #132, #190, .T. ) ;
#26 = FACE_OUTER_BOUND ( 'NONE', #278, .T. ) ;
#27 = DIRECTION ( 'NONE',  ( 1.000000000000000000, 0.000000000000000000, -0.000000000000000000 ) ) ;
#28 = APPROVAL_PERSON_ORGANIZATION ( #274, #97, #160 ) ;
#29 = ADVANCED_FACE ( 'NONE', ( #306 ), #70, .F. ) ;
#30 = CARTESIAN_POINT ( 'NONE',  ( 0.000000000000000000, 0.000000000000000000, 5.000000000000000000 ) ) ;
#31 =( LENGTH_UNIT ( ) NAMED_UNIT ( * ) SI_UNIT ( .MILLI., .METRE. ) );
#32 = DIRECTION ( 'NONE',  ( 0.000000000000000000, 0.000000000000000000, 1.000000000000000000 ) ) ;
#33 = CIRCLE ( 'NONE', #55, 3.000000000000000444 ) ;
#34 = EDGE_CURVE ( 'NONE', #41, #10, #264, .T. ) ;
#35 = DIRECTION ( 'NONE',  ( 1.000000000000000000, 0.000000000000000000, 0.000000000000000000 ) ) ;
#36 = APPROVAL_STATUS ( 'not_yet_approved' ) ;
#37 = EDGE_CURVE ( 'NONE', #115, #64, #66, .T. ) ;
#38 = PERSON_AND_ORGANIZATION ( #252, #292 ) ;
#39 = ORIENTED_EDGE ( 'NONE', *, *, #34, .F. ) ;
#40 = APPLICATION_PROTOCOL_DEFINITION ( 'international standard', 'config_control_design', 1994, #279 ) ;
#41 = VERTEX_POINT ( 'NONE', #189 ) ;
#42 = PERSON_AND_ORGANIZATION_ROLE ( 'creator' ) ;
#43 = EDGE_LOOP ( 'NONE', ( #238, #63 ) ) ;
#44 = DATE_AND_TIME ( #247, #141 ) ;
#45 = CC_DESIGN_PERSON_AND_ORGANIZATION_ASSIGNMENT ( #200, #297, ( #118 ) ) ;
#46 = DIRECTION ( 'NONE',  ( 1.000000000000000000, 0.000000000000000000, 0.000000000000000000 ) ) ;
#47 = CC_DESIGN_PERSON_AND_ORGANIZATION_ASSIGNMENT ( #158, #301, ( #204 ) ) ;
#48 = CARTESIAN_POINT ( 'NONE',  ( 3.000000000000000444, 3.673940397442060361E-16, 255.0000000000000000 ) ) ;
#49 = CIRCLE ( 'NONE', #257, 0.1999999999999996503 ) ;
#50 = CARTESIAN_POINT ( 'NONE',  ( 6.000000000000000888, 7.347880794884120722E-16, 0.000000000000000000 ) ) ;
#51 = ORIENTED_EDGE ( 'NONE', *, *, #129, .T. ) ;
#52 = CARTESIAN_POINT ( 'NONE',  ( 0.000000000000000000, 0.000000000000000000, 5.200000000000009948 ) ) ;
#53 = CC_DESIGN_SECURITY_CLASSIFICATION ( #118, ( #204 ) ) ;
#54 = CARTESIAN_POINT ( 'NONE',  ( -6.000000000000000888, 0.000000000000000000, 5.000000000000000000 ) ) ;
#55 = AXIS2_PLACEMENT_3D ( 'NONE', #268, #291, #35 ) ;
#56 =( NAMED_UNIT ( * ) PLANE_ANGLE_UNIT ( ) SI_UNIT ( $, .RADIAN. ) );
#57 = AXIS2_PLACEMENT_3D ( 'NONE', #122, #305, #169 ) ;
#58 = DIRECTION ( 'NONE',  ( 0.000000000000000000, 0.000000000000000000, 1.000000000000000000 ) ) ;
#59 = ADVANCED_FACE ( 'NONE', ( #304 ), #193, .F. ) ;
#60 = AXIS2_PLACEMENT_3D ( 'NONE', #22, #303, #253 ) ;
#61 = AXIS2_PLACEMENT_3D ( 'NONE', #17, #179, #130 ) ;
#62 = CARTESIAN_POINT ( 'NONE',  ( 0.000000000000000000, 0.000000000000000000, 5.200000000000009948 ) ) ;
#63 = ORIENTED_EDGE ( 'NONE', *, *, #152, .T. ) ;
#64 = VERTEX_POINT ( 'NONE', #50 ) ;
#65 = APPROVAL_STATUS ( 'not_yet_approved' ) ;
#66 = CIRCLE ( 'NONE', #19, 6.000000000000000888 ) ;
#67 = DATE_TIME_ROLE ( 'classification_date' ) ;
#68 = ORIENTED_EDGE ( 'NONE', *, *, #25, .T. ) ;
#69 = CARTESIAN_POINT ( 'NONE',  ( 0.000000000000000000, 0.000000000000000000, 255.0000000000000000 ) ) ;
#70 = TOROIDAL_SURFACE ( 'NONE', #12, 3.200000000000000622, 0.2000000000000000111 ) ;
#71 = EDGE_CURVE ( 'NONE', #64, #115, #134, .T. ) ;
#72 = CARTESIAN_POINT ( 'NONE',  ( 6.000000000000000888, 7.347880794884120722E-16, 5.000000000000000000 ) ) ;
#73 = DIRECTION ( 'NONE',  ( 1.000000000000000000, 0.000000000000000000, 0.000000000000000000 ) ) ;
#74 = CARTESIAN_POINT ( 'NONE',  ( 0.000000000000000000, 0.000000000000000000, 5.000000000000000000 ) ) ;
#75 = ORIENTED_EDGE ( 'NONE', *, *, #223, .F. ) ;
#76 = ADVANCED_FACE ( 'NONE', ( #26 ), #256, .T. ) ;
#77 = PLANE ( 'NONE',  #234 ) ;
#78 = DIRECTION ( 'NONE',  ( 1.000000000000000000, 0.000000000000000000, 0.000000000000000000 ) ) ;
#79 = PRODUCT_RELATED_PRODUCT_CATEGORY ( 'detail', '', ( #4 ) ) ;
#80 = DIRECTION ( 'NONE',  ( 0.000000000000000000, -1.000000000000000000, 0.000000000000000000 ) ) ;
#81 = CARTESIAN_POINT ( 'NONE',  ( 0.000000000000000000, 0.000000000000000000, 5.000000000000000000 ) ) ;
#82 = DIRECTION ( 'NONE',  ( 0.000000000000000000, 0.000000000000000000, 1.000000000000000000 ) ) ;
#83 = CALENDAR_DATE ( 2022, 20, 6 ) ;
#84 = LOCAL_TIME ( 11, 58, 6.000000000000000000, #136 ) ;
#85 = PERSON_AND_ORGANIZATION ( #252, #292 ) ;
#86 = ORIENTED_EDGE ( 'NONE', *, *, #129, .F. ) ;
#87 = CIRCLE ( 'NONE', #186, 0.2000000000000000944 ) ;
#88 = ADVANCED_FACE ( 'NONE', ( #140 ), #236, .F. ) ;
#89 = COORDINATED_UNIVERSAL_TIME_OFFSET ( 1, 0, .AHEAD. ) ;
#90 = SHAPE_DEFINITION_REPRESENTATION ( #269, #20 ) ;
#91 = EDGE_LOOP ( 'NONE', ( #235, #135, #249, #137 ) ) ;
#92 = FACE_OUTER_BOUND ( 'NONE', #185, .T. ) ;
#93 = CARTESIAN_POINT ( 'NONE',  ( 3.200000000000000622, 0.000000000000000000, 5.000000000000005329 ) ) ;
#94 = AXIS2_PLACEMENT_3D ( 'NONE', #52, #146, #144 ) ;
#95 = AXIS2_PLACEMENT_3D ( 'NONE', #117, #240, #27 ) ;
#96 = DIRECTION ( 'NONE',  ( 0.000000000000000000, 0.000000000000000000, 1.000000000000000000 ) ) ;
#97 = APPROVAL ( #65, 'NEURÈENÝ' ) ;
#98 = DIRECTION ( 'NONE',  ( -0.000000000000000000, -0.000000000000000000, -1.000000000000000000 ) ) ;
#99 = DIRECTION ( 'NONE',  ( 1.000000000000000000, 0.000000000000000000, 0.000000000000000000 ) ) ;
#100 = CARTESIAN_POINT ( 'NONE',  ( -3.000000000000000444, 0.000000000000000000, 255.0000000000000000 ) ) ;
#101 = ADVANCED_FACE ( 'NONE', ( #258 ), #21, .T. ) ;
#102 = CARTESIAN_POINT ( 'NONE',  ( 0.000000000000000000, 0.000000000000000000, 255.0000000000000000 ) ) ;
#103 = DIRECTION ( 'NONE',  ( 0.000000000000000000, 0.000000000000000000, 1.000000000000000000 ) ) ;
#104 = LINE ( 'NONE', #199, #276 ) ;
#105 = PERSON_AND_ORGANIZATION_ROLE ( 'creator' ) ;
#106 = ADVANCED_FACE ( 'NONE', ( #92 ), #283, .T. ) ;
#107 = ORIENTED_EDGE ( 'NONE', *, *, #25, .F. ) ;
#108 = DATE_TIME_ROLE ( 'creation_date' ) ;
#109 = VERTEX_POINT ( 'NONE', #93 ) ;
#110 = ORIENTED_EDGE ( 'NONE', *, *, #277, .T. ) ;
#111 = EDGE_CURVE ( 'NONE', #18, #109, #222, .T. ) ;
#112 = CALENDAR_DATE ( 2022, 20, 6 ) ;
#113 = ORIENTED_EDGE ( 'NONE', *, *, #270, .T. ) ;
#114 = PERSON_AND_ORGANIZATION ( #252, #292 ) ;
#115 = VERTEX_POINT ( 'NONE', #254 ) ;
#116 = ADVANCED_FACE ( 'NONE', ( #142 ), #121, .T. ) ;
#117 = CARTESIAN_POINT ( 'NONE',  ( 0.000000000000000000, 0.000000000000000000, 255.0000000000000000 ) ) ;
#118 = SECURITY_CLASSIFICATION ( '', '', #231 ) ;
#119 = DIRECTION ( 'NONE',  ( 0.000000000000000000, 0.000000000000000000, 1.000000000000000000 ) ) ;
#120 = AXIS2_PLACEMENT_3D ( 'NONE', #102, #221, #171 ) ;
#121 = CYLINDRICAL_SURFACE ( 'NONE', #267, 3.000000000000000444 ) ;
#122 = CARTESIAN_POINT ( 'NONE',  ( 0.000000000000000000, 0.000000000000000000, 0.000000000000000000 ) ) ;
#123 = EDGE_CURVE ( 'NONE', #132, #109, #49, .T. ) ;
#124 = LOCAL_TIME ( 11, 58, 6.000000000000000000, #208 ) ;
#125 = DIRECTION ( 'NONE',  ( 1.000000000000000000, 0.000000000000000000, 0.000000000000000000 ) ) ;
#126 = LINE ( 'NONE', #54, #5 ) ;
#127 =( NAMED_UNIT ( * ) SI_UNIT ( $, .STERADIAN. ) SOLID_ANGLE_UNIT ( ) );
#128 = CARTESIAN_POINT ( 'NONE',  ( 3.000000000000000444, 3.673940397442060361E-16, 5.200000000000009948 ) ) ;
#129 = EDGE_CURVE ( 'NONE', #10, #64, #195, .T. ) ;
#130 = DIRECTION ( 'NONE',  ( 1.000000000000000000, 0.000000000000000000, 0.000000000000000000 ) ) ;
#131 = PERSON_AND_ORGANIZATION_ROLE ( 'design_owner' ) ;
#132 = VERTEX_POINT ( 'NONE', #128 ) ;
#133 = COORDINATED_UNIVERSAL_TIME_OFFSET ( 1, 0, .AHEAD. ) ;
#134 = CIRCLE ( 'NONE', #239, 6.000000000000000888 ) ;
#135 = ORIENTED_EDGE ( 'NONE', *, *, #219, .T. ) ;
#136 = COORDINATED_UNIVERSAL_TIME_OFFSET ( 1, 0, .AHEAD. ) ;
#137 = ORIENTED_EDGE ( 'NONE', *, *, #123, .F. ) ;
#138 = APPROVAL_DATE_TIME ( #44, #97 ) ;
#139 = ORIENTED_EDGE ( 'NONE', *, *, #123, .T. ) ;
#140 = FACE_OUTER_BOUND ( 'NONE', #214, .T. ) ;
#141 = LOCAL_TIME ( 11, 58, 6.000000000000000000, #133 ) ;
#142 = FACE_OUTER_BOUND ( 'NONE', #13, .T. ) ;
#143 = AXIS2_PLACEMENT_3D ( 'NONE', #30, #242, #99 ) ;
#144 = DIRECTION ( 'NONE',  ( 1.000000000000000000, 0.000000000000000000, 0.000000000000000000 ) ) ;
#145 = DIRECTION ( 'NONE',  ( 1.000000000000000000, 0.000000000000000000, 0.000000000000000000 ) ) ;
#146 = DIRECTION ( 'NONE',  ( 0.000000000000000000, 0.000000000000000000, 1.000000000000000000 ) ) ;
#147 = ADVANCED_FACE ( 'NONE', ( #218 ), #197, .T. ) ;
#148 = DIRECTION ( 'NONE',  ( -0.000000000000000000, -0.000000000000000000, -1.000000000000000000 ) ) ;
#149 = CIRCLE ( 'NONE', #153, 3.000000000000000444 ) ;
#150 = DIRECTION ( 'NONE',  ( 1.000000000000000000, 0.000000000000000000, 0.000000000000000000 ) ) ;
#151 = DIRECTION ( 'NONE',  ( 0.000000000000000000, 0.000000000000000000, -1.000000000000000000 ) ) ;
#152 = EDGE_CURVE ( 'NONE', #10, #41, #182, .T. ) ;
#153 = AXIS2_PLACEMENT_3D ( 'NONE', #69, #96, #192 ) ;
#154 = CALENDAR_DATE ( 2022, 20, 6 ) ;
#155 = APPROVAL_PERSON_ORGANIZATION ( #14, #163, #229 ) ;
#156 = EDGE_LOOP ( 'NONE', ( #295, #298, #139, #251 ) ) ;
#157 = CC_DESIGN_DATE_AND_TIME_ASSIGNMENT ( #183, #67, ( #118 ) ) ;
#158 = PERSON_AND_ORGANIZATION ( #252, #292 ) ;
#159 = ORIENTED_EDGE ( 'NONE', *, *, #294, .F. ) ;
#160 = APPROVAL_ROLE ( '' ) ;
#161 = ORIENTED_EDGE ( 'NONE', *, *, #71, .T. ) ;
#162 = DATE_AND_TIME ( #83, #124 ) ;
#163 = APPROVAL ( #250, 'NEURÈENÝ' ) ;
#164 = APPROVAL_PERSON_ORGANIZATION ( #38, #241, #280 ) ;
#165 = CARTESIAN_POINT ( 'NONE',  ( 0.000000000000000000, 0.000000000000000000, 0.000000000000000000 ) ) ;
#166 = DIRECTION ( 'NONE',  ( -0.000000000000000000, -0.000000000000000000, -1.000000000000000000 ) ) ;
#167 = CC_DESIGN_PERSON_AND_ORGANIZATION_ASSIGNMENT ( #203, #105, ( #204 ) ) ;
#168 = DIRECTION ( 'NONE',  ( -0.000000000000000000, -0.000000000000000000, -1.000000000000000000 ) ) ;
#169 = DIRECTION ( 'NONE',  ( 1.000000000000000000, 0.000000000000000000, -0.000000000000000000 ) ) ;
#170 = DIRECTION ( 'NONE',  ( 1.000000000000000000, 0.000000000000000000, -0.000000000000000000 ) ) ;
#171 = DIRECTION ( 'NONE',  ( -1.000000000000000000, 0.000000000000000000, 0.000000000000000000 ) ) ;
#172 = DIRECTION ( 'NONE',  ( -0.000000000000000000, -0.000000000000000000, -1.000000000000000000 ) ) ;
#173 = CC_DESIGN_APPROVAL ( #163, ( #204 ) ) ;
#174 = CARTESIAN_POINT ( 'NONE',  ( -3.200000000000000622, 3.918869757271530953E-16, 5.200000000000009948 ) ) ;
#175 = PRODUCT_DEFINITION ( 'NEZNÁMÝ', '', #204, #8 ) ;
#176 = DIRECTION ( 'NONE',  ( -0.000000000000000000, -0.000000000000000000, -1.000000000000000000 ) ) ;
#177 = CLOSED_SHELL ( 'NONE', ( #59, #116, #106, #76, #215, #88, #147, #101, #29 ) ) ;
#178 = EDGE_LOOP ( 'NONE', ( #230, #275 ) ) ;
#179 = DIRECTION ( 'NONE',  ( 0.000000000000000000, 0.000000000000000000, 1.000000000000000000 ) ) ;
#180 = ORIENTED_EDGE ( 'NONE', *, *, #37, .F. ) ;
#181 = DATE_AND_TIME ( #202, #260 ) ;
#182 = CIRCLE ( 'NONE', #23, 6.000000000000000888 ) ;
#183 = DATE_AND_TIME ( #112, #273 ) ;
#184 = VERTEX_POINT ( 'NONE', #263 ) ;
#185 = EDGE_LOOP ( 'NONE', ( #282, #51, #161, #159 ) ) ;
#186 = AXIS2_PLACEMENT_3D ( 'NONE', #174, #266, #289 ) ;
#187 = CARTESIAN_POINT ( 'NONE',  ( 0.000000000000000000, 0.000000000000000000, 5.000000000000000000 ) ) ;
#188 = AXIS2_PLACEMENT_3D ( 'NONE', #74, #302, #145 ) ;
#189 = CARTESIAN_POINT ( 'NONE',  ( -6.000000000000000888, 0.000000000000000000, 5.000000000000000000 ) ) ;
#190 = LINE ( 'NONE', #48, #296 ) ;
#191 = AXIS2_PLACEMENT_3D ( 'NONE', #187, #166, #125 ) ;
#192 = DIRECTION ( 'NONE',  ( 1.000000000000000000, 0.000000000000000000, 0.000000000000000000 ) ) ;
#193 = TOROIDAL_SURFACE ( 'NONE', #94, 3.200000000000000622, 0.2000000000000000111 ) ;
#194 = MANIFOLD_SOLID_BREP ( 'Zaoblit1', #177 ) ;
#195 = LINE ( 'NONE', #3, #307 ) ;
#196 = CIRCLE ( 'NONE', #143, 3.200000000000000622 ) ;
#197 = CYLINDRICAL_SURFACE ( 'NONE', #120, 3.000000000000000444 ) ;
#198 = FACE_BOUND ( 'NONE', #15, .T. ) ;
#199 = CARTESIAN_POINT ( 'NONE',  ( -3.000000000000000444, 0.000000000000000000, 255.0000000000000000 ) ) ;
#200 = PERSON_AND_ORGANIZATION ( #252, #292 ) ;
#201 = VERTEX_POINT ( 'NONE', #100 ) ;
#202 = CALENDAR_DATE ( 2022, 20, 6 ) ;
#203 = PERSON_AND_ORGANIZATION ( #252, #292 ) ;
#204 = PRODUCT_DEFINITION_FORMATION_WITH_SPECIFIED_SOURCE ( 'LIBOVOLNÝ', '', #4, .NOT_KNOWN. ) ;
#205 = ORIENTED_EDGE ( 'NONE', *, *, #232, .T. ) ;
#206 = AXIS2_PLACEMENT_3D ( 'NONE', #62, #32, #150 ) ;
#207 = CC_DESIGN_PERSON_AND_ORGANIZATION_ASSIGNMENT ( #114, #131, ( #4 ) ) ;
#208 = COORDINATED_UNIVERSAL_TIME_OFFSET ( 1, 0, .AHEAD. ) ;
#209 = VERTEX_POINT ( 'NONE', #6 ) ;
#210 = DIRECTION ( 'NONE',  ( 0.000000000000000000, 0.000000000000000000, 1.000000000000000000 ) ) ;
#211 = CC_DESIGN_PERSON_AND_ORGANIZATION_ASSIGNMENT ( #85, #42, ( #175 ) ) ;
#212 = CARTESIAN_POINT ( 'NONE',  ( 0.000000000000000000, 0.000000000000000000, 0.000000000000000000 ) ) ;
#213 = ORIENTED_EDGE ( 'NONE', *, *, #294, .T. ) ;
#214 = EDGE_LOOP ( 'NONE', ( #180, #300 ) ) ;
#215 = ADVANCED_FACE ( 'NONE', ( #198, #293 ), #77, .T. ) ;
#216 = CARTESIAN_POINT ( 'NONE',  ( 0.000000000000000000, 0.000000000000000000, 255.0000000000000000 ) ) ;
#217 = CARTESIAN_POINT ( 'NONE',  ( 3.200000000000000622, 0.000000000000000000, 5.200000000000009948 ) ) ;
#218 = FACE_OUTER_BOUND ( 'NONE', #272, .T. ) ;
#219 = EDGE_CURVE ( 'NONE', #184, #18, #87, .T. ) ;
#220 = DIRECTION ( 'NONE',  ( 1.000000000000000000, 0.000000000000000000, 0.000000000000000000 ) ) ;
#221 = DIRECTION ( 'NONE',  ( -0.000000000000000000, -0.000000000000000000, -1.000000000000000000 ) ) ;
#222 = CIRCLE ( 'NONE', #191, 3.200000000000000622 ) ;
#223 = EDGE_CURVE ( 'NONE', #209, #201, #33, .T. ) ;
#224 = COORDINATED_UNIVERSAL_TIME_OFFSET ( 1, 0, .AHEAD. ) ;
#225 = CIRCLE ( 'NONE', #261, 3.000000000000000444 ) ;
#226 = APPROVAL_DATE_TIME ( #162, #241 ) ;
#227 = ORIENTED_EDGE ( 'NONE', *, *, #11, .F. ) ;
#228 = AXIS2_PLACEMENT_3D ( 'NONE', #24, #168, #285 ) ;
#229 = APPROVAL_ROLE ( '' ) ;
#230 = ORIENTED_EDGE ( 'NONE', *, *, #11, .T. ) ;
#231 = SECURITY_CLASSIFICATION_LEVEL ( 'unclassified' ) ;
#232 = EDGE_CURVE ( 'NONE', #184, #132, #225, .T. ) ;
#233 = APPROVAL_DATE_TIME ( #181, #163 ) ;
#234 = AXIS2_PLACEMENT_3D ( 'NONE', #81, #82, #170 ) ;
#235 = ORIENTED_EDGE ( 'NONE', *, *, #232, .F. ) ;
#236 = PLANE ( 'NONE',  #57 ) ;
#237 = DIRECTION ( 'NONE',  ( 0.000000000000000000, 0.000000000000000000, 1.000000000000000000 ) ) ;
#238 = ORIENTED_EDGE ( 'NONE', *, *, #34, .T. ) ;
#239 = AXIS2_PLACEMENT_3D ( 'NONE', #212, #119, #46 ) ;
#240 = DIRECTION ( 'NONE',  ( 0.000000000000000000, 0.000000000000000000, 1.000000000000000000 ) ) ;
#241 = APPROVAL ( #36, 'NEURÈENÝ' ) ;
#242 = DIRECTION ( 'NONE',  ( -0.000000000000000000, -0.000000000000000000, -1.000000000000000000 ) ) ;
#243 = APPLICATION_CONTEXT ( 'configuration controlled 3d designs of mechanical parts and assemblies' ) ;
#244 = DIRECTION ( 'NONE',  ( -0.000000000000000000, -0.000000000000000000, -1.000000000000000000 ) ) ;
#245 = MECHANICAL_CONTEXT ( 'NONE', #243, 'mechanical' ) ;
#246 = ORIENTED_EDGE ( 'NONE', *, *, #111, .T. ) ;
#247 = CALENDAR_DATE ( 2022, 20, 6 ) ;
#248 = ORIENTED_EDGE ( 'NONE', *, *, #37, .T. ) ;
#249 = ORIENTED_EDGE ( 'NONE', *, *, #277, .F. ) ;
#250 = APPROVAL_STATUS ( 'not_yet_approved' ) ;
#251 = ORIENTED_EDGE ( 'NONE', *, *, #111, .F. ) ;
#252 = PERSON ( 'NEURÈENÝ', 'NEURÈENÝ', 'NEURÈENÝ', ('NEURÈENÝ'), ('NEURÈENÝ'), ('NEURÈENÝ') ) ;
#253 = DIRECTION ( 'NONE',  ( -1.000000000000000000, 0.000000000000000000, 0.000000000000000000 ) ) ;
#254 = CARTESIAN_POINT ( 'NONE',  ( -6.000000000000000888, 0.000000000000000000, 0.000000000000000000 ) ) ;
#255 = CC_DESIGN_APPROVAL ( #241, ( #175 ) ) ;
#256 = CYLINDRICAL_SURFACE ( 'NONE', #228, 6.000000000000000888 ) ;
#257 = AXIS2_PLACEMENT_3D ( 'NONE', #217, #80, #151 ) ;
#258 = FACE_OUTER_BOUND ( 'NONE', #178, .T. ) ;
#259 = CARTESIAN_POINT ( 'NONE',  ( -3.200000000000000622, 3.918869757271530953E-16, 5.000000000000005329 ) ) ;
#260 = LOCAL_TIME ( 11, 58, 6.000000000000000000, #224 ) ;
#261 = AXIS2_PLACEMENT_3D ( 'NONE', #1, #58, #78 ) ;
#262 = EDGE_CURVE ( 'NONE', #201, #184, #104, .T. ) ;
#263 = CARTESIAN_POINT ( 'NONE',  ( -3.000000000000000444, 0.000000000000000000, 5.200000000000009948 ) ) ;
#264 = CIRCLE ( 'NONE', #188, 6.000000000000000888 ) ;
#265 = CARTESIAN_POINT ( 'NONE',  ( 0.000000000000000000, 0.000000000000000000, 5.000000000000000000 ) ) ;
#266 = DIRECTION ( 'NONE',  ( 1.224646799147353207E-16, 1.000000000000000000, -0.000000000000000000 ) ) ;
#267 = AXIS2_PLACEMENT_3D ( 'NONE', #216, #244, #7 ) ;
#268 = CARTESIAN_POINT ( 'NONE',  ( 0.000000000000000000, 0.000000000000000000, 255.0000000000000000 ) ) ;
#269 = PRODUCT_DEFINITION_SHAPE ( 'NONE', 'NONE',  #175 ) ;
#270 = EDGE_CURVE ( 'NONE', #132, #184, #290, .T. ) ;
#271 = UNCERTAINTY_MEASURE_WITH_UNIT (LENGTH_MEASURE( 1.000000000000000082E-05 ), #31, 'distance_accuracy_value', 'NONE');
#272 = EDGE_LOOP ( 'NONE', ( #107, #227, #284, #205 ) ) ;
#273 = LOCAL_TIME ( 11, 58, 6.000000000000000000, #89 ) ;
#274 = PERSON_AND_ORGANIZATION ( #252, #292 ) ;
#275 = ORIENTED_EDGE ( 'NONE', *, *, #223, .T. ) ;
#276 = VECTOR ( 'NONE', #176, 1000.000000000000000 ) ;
#277 = EDGE_CURVE ( 'NONE', #109, #18, #196, .T. ) ;
#278 = EDGE_LOOP ( 'NONE', ( #86, #39, #213, #248 ) ) ;
#279 = APPLICATION_CONTEXT ( 'configuration controlled 3d designs of mechanical parts and assemblies' ) ;
#280 = APPROVAL_ROLE ( '' ) ;
#281 = ORIENTED_EDGE ( 'NONE', *, *, #262, .F. ) ;
#282 = ORIENTED_EDGE ( 'NONE', *, *, #152, .F. ) ;
#283 = CYLINDRICAL_SURFACE ( 'NONE', #60, 6.000000000000000888 ) ;
#284 = ORIENTED_EDGE ( 'NONE', *, *, #262, .T. ) ;
#285 = DIRECTION ( 'NONE',  ( -1.000000000000000000, 0.000000000000000000, 0.000000000000000000 ) ) ;
#286 = CARTESIAN_POINT ( 'NONE',  ( 0.000000000000000000, 0.000000000000000000, 5.200000000000009948 ) ) ;
#287 = DIRECTION ( 'NONE',  ( 1.000000000000000000, 0.000000000000000000, 0.000000000000000000 ) ) ;
#288 = CC_DESIGN_APPROVAL ( #97, ( #118 ) ) ;
#289 = DIRECTION ( 'NONE',  ( -1.000000000000000000, 1.224646799147353207E-16, 0.000000000000000000 ) ) ;
#290 = CIRCLE ( 'NONE', #206, 3.000000000000000444 ) ;
#291 = DIRECTION ( 'NONE',  ( 0.000000000000000000, 0.000000000000000000, 1.000000000000000000 ) ) ;
#292 = ORGANIZATION ( 'NEURÈENÝ', 'NEURÈENÝ', '' ) ;
#293 = FACE_OUTER_BOUND ( 'NONE', #43, .T. ) ;
#294 = EDGE_CURVE ( 'NONE', #41, #115, #126, .T. ) ;
#295 = ORIENTED_EDGE ( 'NONE', *, *, #219, .F. ) ;
#296 = VECTOR ( 'NONE', #98, 1000.000000000000000 ) ;
#297 = PERSON_AND_ORGANIZATION_ROLE ( 'classification_officer' ) ;
#298 = ORIENTED_EDGE ( 'NONE', *, *, #270, .F. ) ;
#299 = APPLICATION_PROTOCOL_DEFINITION ( 'international standard', 'config_control_design', 1994, #243 ) ;
#300 = ORIENTED_EDGE ( 'NONE', *, *, #71, .F. ) ;
#301 = PERSON_AND_ORGANIZATION_ROLE ( 'design_supplier' ) ;
#302 = DIRECTION ( 'NONE',  ( 0.000000000000000000, 0.000000000000000000, 1.000000000000000000 ) ) ;
#303 = DIRECTION ( 'NONE',  ( -0.000000000000000000, -0.000000000000000000, -1.000000000000000000 ) ) ;
#304 = FACE_OUTER_BOUND ( 'NONE', #91, .T. ) ;
#305 = DIRECTION ( 'NONE',  ( 0.000000000000000000, 0.000000000000000000, 1.000000000000000000 ) ) ;
#306 = FACE_OUTER_BOUND ( 'NONE', #156, .T. ) ;
#307 = VECTOR ( 'NONE', #172, 1000.000000000000000 ) ;
ENDSEC;
END-ISO-10303-21;
