ISO-10303-21;
HEADER;
FILE_DESCRIPTION (( 'STEP AP203' ),
    '1' );
FILE_NAME ('5f87.STEP',
    '2022-06-20T10:18:34',
    ( '' ),
    ( '' ),
    'SwSTEP 2.0',
    'SolidWorks 2019',
    '' );
FILE_SCHEMA (( 'CONFIG_CONTROL_DESIGN' ));
ENDSEC;

DATA;
#1 = CARTESIAN_POINT ( 'NONE',  ( 1.300000000000000266, 0.000000000000000000, 2.199999999999979750 ) ) ;
#2 = CARTESIAN_POINT ( 'NONE',  ( 0.000000000000000000, 0.000000000000000000, 2.000000000000000000 ) ) ;
#3 = ADVANCED_FACE ( 'NONE', ( #144 ), #24, .T. ) ;
#4 = DIRECTION ( 'NONE',  ( 1.000000000000000000, 0.000000000000000000, 0.000000000000000000 ) ) ;
#5 = DIRECTION ( 'NONE',  ( 1.000000000000000000, 0.000000000000000000, 0.000000000000000000 ) ) ;
#6 = CIRCLE ( 'NONE', #173, 0.2000000000000000944 ) ;
#7 = DIRECTION ( 'NONE',  ( 1.000000000000000000, 0.000000000000000000, 0.000000000000000000 ) ) ;
#8 = EDGE_CURVE ( 'NONE', #215, #255, #6, .T. ) ;
#9 = CARTESIAN_POINT ( 'NONE',  ( 1.100000000000000089, 1.347111479062088503E-16, 317.0000000000000000 ) ) ;
#10 = AXIS2_PLACEMENT_3D ( 'NONE', #198, #112, #150 ) ;
#11 = CARTESIAN_POINT ( 'NONE',  ( 0.000000000000000000, 0.000000000000000000, 0.000000000000000000 ) ) ;
#12 = CYLINDRICAL_SURFACE ( 'NONE', #115, 1.100000000000000089 ) ;
#13 = EDGE_CURVE ( 'NONE', #111, #215, #284, .T. ) ;
#14 = CARTESIAN_POINT ( 'NONE',  ( 1.100000000000000089, 1.347111479062088503E-16, 2.199999999999979750 ) ) ;
#15 = ORIENTED_EDGE ( 'NONE', *, *, #109, .F. ) ;
#16 = DATE_AND_TIME ( #87, #103 ) ;
#17 = ADVANCED_FACE ( 'NONE', ( #233 ), #38, .F. ) ;
#18 = CARTESIAN_POINT ( 'NONE',  ( 1.300000000000000266, 0.000000000000000000, 1.999999999999989564 ) ) ;
#19 = AXIS2_PLACEMENT_3D ( 'NONE', #243, #127, #290 ) ;
#20 = CARTESIAN_POINT ( 'NONE',  ( 0.000000000000000000, 0.000000000000000000, 2.000000000000000000 ) ) ;
#21 = LINE ( 'NONE', #40, #102 ) ;
#22 = DIRECTION ( 'NONE',  ( 1.000000000000000000, 0.000000000000000000, 0.000000000000000000 ) ) ;
#23 = CALENDAR_DATE ( 2022, 20, 6 ) ;
#24 = CYLINDRICAL_SURFACE ( 'NONE', #191, 2.000000000000000000 ) ;
#25 = COORDINATED_UNIVERSAL_TIME_OFFSET ( 1, 0, .AHEAD. ) ;
#26 = DIRECTION ( 'NONE',  ( -0.000000000000000000, -0.000000000000000000, -1.000000000000000000 ) ) ;
#27 = DIRECTION ( 'NONE',  ( 0.000000000000000000, 0.000000000000000000, 1.000000000000000000 ) ) ;
#28 = APPROVAL_STATUS ( 'not_yet_approved' ) ;
#29 = CIRCLE ( 'NONE', #253, 1.100000000000000089 ) ;
#30 = EDGE_CURVE ( 'NONE', #273, #225, #121, .T. ) ;
#31 = PLANE ( 'NONE',  #126 ) ;
#32 = VERTEX_POINT ( 'NONE', #89 ) ;
#33 = FACE_OUTER_BOUND ( 'NONE', #163, .T. ) ;
#34 = FACE_OUTER_BOUND ( 'NONE', #185, .T. ) ;
#35 = VERTEX_POINT ( 'NONE', #149 ) ;
#36 = AXIS2_PLACEMENT_3D ( 'NONE', #195, #47, #283 ) ;
#37 = CC_DESIGN_PERSON_AND_ORGANIZATION_ASSIGNMENT ( #168, #85, ( #172 ) ) ;
#38 = TOROIDAL_SURFACE ( 'NONE', #277, 1.300000000000000266, 0.2000000000000000111 ) ;
#39 = ORIENTED_EDGE ( 'NONE', *, *, #8, .F. ) ;
#40 = CARTESIAN_POINT ( 'NONE',  ( -2.000000000000000000, 0.000000000000000000, 2.000000000000000000 ) ) ;
#41 = ORIENTED_EDGE ( 'NONE', *, *, #78, .F. ) ;
#42 = ORIENTED_EDGE ( 'NONE', *, *, #52, .F. ) ;
#43 = CC_DESIGN_DATE_AND_TIME_ASSIGNMENT ( #16, #307, ( #269 ) ) ;
#44 = PERSON_AND_ORGANIZATION ( #159, #143 ) ;
#45 = DIRECTION ( 'NONE',  ( 1.000000000000000000, 0.000000000000000000, 0.000000000000000000 ) ) ;
#46 = CC_DESIGN_APPROVAL ( #305, ( #304 ) ) ;
#47 = DIRECTION ( 'NONE',  ( 0.000000000000000000, 0.000000000000000000, 1.000000000000000000 ) ) ;
#48 = CC_DESIGN_PERSON_AND_ORGANIZATION_ASSIGNMENT ( #59, #184, ( #269 ) ) ;
#49 = CARTESIAN_POINT ( 'NONE',  ( 0.000000000000000000, 0.000000000000000000, 317.0000000000000000 ) ) ;
#50 = CARTESIAN_POINT ( 'NONE',  ( 0.000000000000000000, 0.000000000000000000, 317.0000000000000000 ) ) ;
#51 = AXIS2_PLACEMENT_3D ( 'NONE', #117, #146, #4 ) ;
#52 = EDGE_CURVE ( 'NONE', #255, #82, #302, .T. ) ;
#53 = VERTEX_POINT ( 'NONE', #258 ) ;
#54 = DIRECTION ( 'NONE',  ( 1.000000000000000000, 0.000000000000000000, 0.000000000000000000 ) ) ;
#55 = EDGE_LOOP ( 'NONE', ( #182, #145, #204, #252 ) ) ;
#56 = FACE_OUTER_BOUND ( 'NONE', #98, .T. ) ;
#57 = ORIENTED_EDGE ( 'NONE', *, *, #96, .T. ) ;
#58 = PERSON_AND_ORGANIZATION ( #159, #143 ) ;
#59 = PERSON_AND_ORGANIZATION ( #159, #143 ) ;
#60 = DATE_AND_TIME ( #278, #209 ) ;
#61 = ORIENTED_EDGE ( 'NONE', *, *, #52, .T. ) ;
#62 = AXIS2_PLACEMENT_3D ( 'NONE', #122, #124, #5 ) ;
#63 = ORIENTED_EDGE ( 'NONE', *, *, #183, .F. ) ;
#64 = CARTESIAN_POINT ( 'NONE',  ( 0.000000000000000000, 0.000000000000000000, 0.000000000000000000 ) ) ;
#65 = EDGE_CURVE ( 'NONE', #82, #255, #164, .T. ) ;
#66 = ORIENTED_EDGE ( 'NONE', *, *, #96, .F. ) ;
#67 = EDGE_LOOP ( 'NONE', ( #212, #271 ) ) ;
#68 = ORIENTED_EDGE ( 'NONE', *, *, #30, .F. ) ;
#69 = EDGE_CURVE ( 'NONE', #225, #273, #74, .T. ) ;
#70 = VECTOR ( 'NONE', #157, 1000.000000000000000 ) ;
#71 = FACE_BOUND ( 'NONE', #136, .T. ) ;
#72 = DIRECTION ( 'NONE',  ( 0.000000000000000000, 0.000000000000000000, 1.000000000000000000 ) ) ;
#73 = CALENDAR_DATE ( 2022, 20, 6 ) ;
#74 = CIRCLE ( 'NONE', #51, 2.000000000000000000 ) ;
#75 = AXIS2_PLACEMENT_3D ( 'NONE', #297, #72, #176 ) ;
#76 = CC_DESIGN_APPROVAL ( #221, ( #148 ) ) ;
#77 = LINE ( 'NONE', #286, #70 ) ;
#78 = EDGE_CURVE ( 'NONE', #53, #273, #306, .T. ) ;
#79 = FACE_OUTER_BOUND ( 'NONE', #55, .T. ) ;
#80 = ORIENTED_EDGE ( 'NONE', *, *, #129, .T. ) ;
#81 = DIRECTION ( 'NONE',  ( 0.000000000000000000, 0.000000000000000000, 1.000000000000000000 ) ) ;
#82 = VERTEX_POINT ( 'NONE', #193 ) ;
#83 = COORDINATED_UNIVERSAL_TIME_OFFSET ( 1, 0, .AHEAD. ) ;
#84 = AXIS2_PLACEMENT_3D ( 'NONE', #50, #135, #179 ) ;
#85 = PERSON_AND_ORGANIZATION_ROLE ( 'design_owner' ) ;
#86 = CARTESIAN_POINT ( 'NONE',  ( 2.000000000000000000, 2.449293598294706414E-16, 2.000000000000000000 ) ) ;
#87 = CALENDAR_DATE ( 2022, 20, 6 ) ;
#88 = AXIS2_PLACEMENT_3D ( 'NONE', #169, #275, #203 ) ;
#89 = CARTESIAN_POINT ( 'NONE',  ( -1.100000000000000089, 0.000000000000000000, 2.199999999999979750 ) ) ;
#90 = DATE_AND_TIME ( #73, #249 ) ;
#91 = AXIS2_PLACEMENT_3D ( 'NONE', #64, #189, #280 ) ;
#92 = CC_DESIGN_DATE_AND_TIME_ASSIGNMENT ( #264, #216, ( #148 ) ) ;
#93 = ORIENTED_EDGE ( 'NONE', *, *, #118, .F. ) ;
#94 = PERSON_AND_ORGANIZATION ( #159, #143 ) ;
#95 = ORIENTED_EDGE ( 'NONE', *, *, #13, .T. ) ;
#96 = EDGE_CURVE ( 'NONE', #215, #32, #229, .T. ) ;
#97 = APPLICATION_CONTEXT ( 'configuration controlled 3d designs of mechanical parts and assemblies' ) ;
#98 = EDGE_LOOP ( 'NONE', ( #210, #201, #141, #285 ) ) ;
#99 = PRODUCT_RELATED_PRODUCT_CATEGORY ( 'detail', '', ( #172 ) ) ;
#100 = APPROVAL_DATE_TIME ( #90, #221 ) ;
#101 = CIRCLE ( 'NONE', #108, 2.000000000000000000 ) ;
#102 = VECTOR ( 'NONE', #234, 1000.000000000000000 ) ;
#103 = LOCAL_TIME ( 12, 18, 34.00000000000000000, #83 ) ;
#104 = DIRECTION ( 'NONE',  ( 1.000000000000000000, 0.000000000000000000, 0.000000000000000000 ) ) ;
#105 = COORDINATED_UNIVERSAL_TIME_OFFSET ( 1, 0, .AHEAD. ) ;
#106 = FACE_OUTER_BOUND ( 'NONE', #67, .T. ) ;
#107 = EDGE_CURVE ( 'NONE', #35, #53, #267, .T. ) ;
#108 = AXIS2_PLACEMENT_3D ( 'NONE', #246, #263, #265 ) ;
#109 = EDGE_CURVE ( 'NONE', #32, #215, #29, .T. ) ;
#110 = CARTESIAN_POINT ( 'NONE',  ( 0.000000000000000000, 0.000000000000000000, 2.199999999999979750 ) ) ;
#111 = VERTEX_POINT ( 'NONE', #9 ) ;
#112 = DIRECTION ( 'NONE',  ( 0.000000000000000000, 0.000000000000000000, 1.000000000000000000 ) ) ;
#113 = ORIENTED_EDGE ( 'NONE', *, *, #65, .F. ) ;
#114 = DIRECTION ( 'NONE',  ( 1.000000000000000000, 0.000000000000000000, -0.000000000000000000 ) ) ;
#115 = AXIS2_PLACEMENT_3D ( 'NONE', #197, #289, #153 ) ;
#116 = CARTESIAN_POINT ( 'NONE',  ( 2.000000000000000000, 2.449293598294706414E-16, 0.000000000000000000 ) ) ;
#117 = CARTESIAN_POINT ( 'NONE',  ( 0.000000000000000000, 0.000000000000000000, 0.000000000000000000 ) ) ;
#118 = EDGE_CURVE ( 'NONE', #111, #300, #199, .T. ) ;
#119 = DIRECTION ( 'NONE',  ( -0.000000000000000000, -0.000000000000000000, -1.000000000000000000 ) ) ;
#120 = CC_DESIGN_PERSON_AND_ORGANIZATION_ASSIGNMENT ( #44, #262, ( #304 ) ) ;
#121 = CIRCLE ( 'NONE', #36, 2.000000000000000000 ) ;
#122 = CARTESIAN_POINT ( 'NONE',  ( 0.000000000000000000, 0.000000000000000000, 2.000000000000000000 ) ) ;
#123 = DIRECTION ( 'NONE',  ( 0.000000000000000000, 0.000000000000000000, 1.000000000000000000 ) ) ;
#124 = DIRECTION ( 'NONE',  ( -0.000000000000000000, -0.000000000000000000, -1.000000000000000000 ) ) ;
#125 = PLANE ( 'NONE',  #10 ) ;
#126 = AXIS2_PLACEMENT_3D ( 'NONE', #245, #181, #132 ) ;
#127 = DIRECTION ( 'NONE',  ( 0.000000000000000000, 0.000000000000000000, 1.000000000000000000 ) ) ;
#128 = CLOSED_SHELL ( 'NONE', ( #226, #236, #214, #3, #139, #219, #208, #202, #17 ) ) ;
#129 = EDGE_CURVE ( 'NONE', #53, #35, #101, .T. ) ;
#130 =( GEOMETRIC_REPRESENTATION_CONTEXT ( 3 ) GLOBAL_UNCERTAINTY_ASSIGNED_CONTEXT ( ( #247 ) ) GLOBAL_UNIT_ASSIGNED_CONTEXT ( ( #256, #192, #303 ) ) REPRESENTATION_CONTEXT ( 'NONE', 'WORKASPACE' ) );
#131 = APPLICATION_CONTEXT ( 'configuration controlled 3d designs of mechanical parts and assemblies' ) ;
#132 = DIRECTION ( 'NONE',  ( 1.000000000000000000, 0.000000000000000000, -0.000000000000000000 ) ) ;
#133 = ORIENTED_EDGE ( 'NONE', *, *, #259, .T. ) ;
#134 = PLANE ( 'NONE',  #295 ) ;
#135 = DIRECTION ( 'NONE',  ( -0.000000000000000000, -0.000000000000000000, -1.000000000000000000 ) ) ;
#136 = EDGE_LOOP ( 'NONE', ( #61, #281 ) ) ;
#137 = DESIGN_CONTEXT ( 'detailed design', #131, 'design' ) ;
#138 = PRODUCT_DEFINITION_SHAPE ( 'NONE', 'NONE',  #269 ) ;
#139 = ADVANCED_FACE ( 'NONE', ( #71, #34 ), #125, .T. ) ;
#140 = APPROVAL_DATE_TIME ( #60, #162 ) ;
#141 = ORIENTED_EDGE ( 'NONE', *, *, #183, .T. ) ;
#142 = AXIS2_PLACEMENT_3D ( 'NONE', #272, #154, #156 ) ;
#143 = ORGANIZATION ( 'NEURÈENÝ', 'NEURÈENÝ', '' ) ;
#144 = FACE_OUTER_BOUND ( 'NONE', #206, .T. ) ;
#145 = ORIENTED_EDGE ( 'NONE', *, *, #78, .T. ) ;
#146 = DIRECTION ( 'NONE',  ( 0.000000000000000000, 0.000000000000000000, 1.000000000000000000 ) ) ;
#147 = APPROVAL_ROLE ( '' ) ;
#148 = SECURITY_CLASSIFICATION ( '', '', #177 ) ;
#149 = CARTESIAN_POINT ( 'NONE',  ( -2.000000000000000000, 0.000000000000000000, 2.000000000000000000 ) ) ;
#150 = DIRECTION ( 'NONE',  ( 1.000000000000000000, 0.000000000000000000, -0.000000000000000000 ) ) ;
#151 = PERSON_AND_ORGANIZATION_ROLE ( 'classification_officer' ) ;
#152 = VECTOR ( 'NONE', #190, 1000.000000000000000 ) ;
#153 = DIRECTION ( 'NONE',  ( -1.000000000000000000, 0.000000000000000000, 0.000000000000000000 ) ) ;
#154 = DIRECTION ( 'NONE',  ( 1.224646799147353207E-16, 1.000000000000000000, -0.000000000000000000 ) ) ;
#155 = APPROVAL_PERSON_ORGANIZATION ( #58, #305, #161 ) ;
#156 = DIRECTION ( 'NONE',  ( -1.000000000000000000, 1.224646799147353207E-16, 0.000000000000000000 ) ) ;
#157 = DIRECTION ( 'NONE',  ( -0.000000000000000000, -0.000000000000000000, -1.000000000000000000 ) ) ;
#158 = APPROVAL_STATUS ( 'not_yet_approved' ) ;
#159 = PERSON ( 'NEURÈENÝ', 'NEURÈENÝ', 'NEURÈENÝ', ('NEURÈENÝ'), ('NEURÈENÝ'), ('NEURÈENÝ') ) ;
#160 = CALENDAR_DATE ( 2022, 20, 6 ) ;
#161 = APPROVAL_ROLE ( '' ) ;
#162 = APPROVAL ( #299, 'NEURÈENÝ' ) ;
#163 = EDGE_LOOP ( 'NONE', ( #298, #68 ) ) ;
#164 = CIRCLE ( 'NONE', #62, 1.300000000000000266 ) ;
#165 = APPROVAL_ROLE ( '' ) ;
#166 = EDGE_LOOP ( 'NONE', ( #218, #66, #257, #113 ) ) ;
#167 = TOROIDAL_SURFACE ( 'NONE', #187, 1.300000000000000266, 0.2000000000000000111 ) ;
#168 = PERSON_AND_ORGANIZATION ( #159, #143 ) ;
#169 = CARTESIAN_POINT ( 'NONE',  ( 0.000000000000000000, 0.000000000000000000, 2.199999999999979750 ) ) ;
#170 = PERSON_AND_ORGANIZATION_ROLE ( 'creator' ) ;
#171 = DIRECTION ( 'NONE',  ( 0.000000000000000000, -1.000000000000000000, 0.000000000000000000 ) ) ;
#172 = PRODUCT ( '5f87', '5f87', '', ( #186 ) ) ;
#173 = AXIS2_PLACEMENT_3D ( 'NONE', #1, #171, #237 ) ;
#174 = DIRECTION ( 'NONE',  ( -0.000000000000000000, -0.000000000000000000, -1.000000000000000000 ) ) ;
#175 = DIRECTION ( 'NONE',  ( -1.000000000000000000, 0.000000000000000000, 0.000000000000000000 ) ) ;
#176 = DIRECTION ( 'NONE',  ( 1.000000000000000000, 0.000000000000000000, 0.000000000000000000 ) ) ;
#177 = SECURITY_CLASSIFICATION_LEVEL ( 'unclassified' ) ;
#178 = EDGE_CURVE ( 'NONE', #32, #82, #223, .T. ) ;
#179 = DIRECTION ( 'NONE',  ( -1.000000000000000000, 0.000000000000000000, 0.000000000000000000 ) ) ;
#180 = DIRECTION ( 'NONE',  ( -0.000000000000000000, -0.000000000000000000, -1.000000000000000000 ) ) ;
#181 = DIRECTION ( 'NONE',  ( 0.000000000000000000, 0.000000000000000000, 1.000000000000000000 ) ) ;
#182 = ORIENTED_EDGE ( 'NONE', *, *, #129, .F. ) ;
#183 = EDGE_CURVE ( 'NONE', #300, #32, #77, .T. ) ;
#184 = PERSON_AND_ORGANIZATION_ROLE ( 'creator' ) ;
#185 = EDGE_LOOP ( 'NONE', ( #238, #80 ) ) ;
#186 = MECHANICAL_CONTEXT ( 'NONE', #97, 'mechanical' ) ;
#187 = AXIS2_PLACEMENT_3D ( 'NONE', #110, #27, #104 ) ;
#188 = APPLICATION_PROTOCOL_DEFINITION ( 'international standard', 'config_control_design', 1994, #131 ) ;
#189 = DIRECTION ( 'NONE',  ( 0.000000000000000000, 0.000000000000000000, 1.000000000000000000 ) ) ;
#190 = DIRECTION ( 'NONE',  ( -0.000000000000000000, -0.000000000000000000, -1.000000000000000000 ) ) ;
#191 = AXIS2_PLACEMENT_3D ( 'NONE', #2, #174, #235 ) ;
#192 =( NAMED_UNIT ( * ) PLANE_ANGLE_UNIT ( ) SI_UNIT ( $, .RADIAN. ) );
#193 = CARTESIAN_POINT ( 'NONE',  ( -1.300000000000000266, 1.592040838891559342E-16, 1.999999999999989564 ) ) ;
#194 = EDGE_LOOP ( 'NONE', ( #93, #95, #57, #63 ) ) ;
#195 = CARTESIAN_POINT ( 'NONE',  ( 0.000000000000000000, 0.000000000000000000, 0.000000000000000000 ) ) ;
#196 = ORIENTED_EDGE ( 'NONE', *, *, #69, .T. ) ;
#197 = CARTESIAN_POINT ( 'NONE',  ( 0.000000000000000000, 0.000000000000000000, 317.0000000000000000 ) ) ;
#198 = CARTESIAN_POINT ( 'NONE',  ( 0.000000000000000000, 0.000000000000000000, 2.000000000000000000 ) ) ;
#199 = CIRCLE ( 'NONE', #239, 1.100000000000000089 ) ;
#200 = FACE_OUTER_BOUND ( 'NONE', #194, .T. ) ;
#201 = ORIENTED_EDGE ( 'NONE', *, *, #254, .F. ) ;
#202 = ADVANCED_FACE ( 'NONE', ( #106 ), #31, .T. ) ;
#203 = DIRECTION ( 'NONE',  ( 1.000000000000000000, 0.000000000000000000, 0.000000000000000000 ) ) ;
#204 = ORIENTED_EDGE ( 'NONE', *, *, #30, .T. ) ;
#205 = AXIS2_PLACEMENT_3D ( 'NONE', #224, #180, #175 ) ;
#206 = EDGE_LOOP ( 'NONE', ( #41, #293, #133, #196 ) ) ;
#207 = COORDINATED_UNIVERSAL_TIME_OFFSET ( 1, 0, .AHEAD. ) ;
#208 = ADVANCED_FACE ( 'NONE', ( #56 ), #242, .T. ) ;
#209 = LOCAL_TIME ( 12, 18, 34.00000000000000000, #207 ) ;
#210 = ORIENTED_EDGE ( 'NONE', *, *, #13, .F. ) ;
#211 = PERSON_AND_ORGANIZATION ( #159, #143 ) ;
#212 = ORIENTED_EDGE ( 'NONE', *, *, #254, .T. ) ;
#213 = VECTOR ( 'NONE', #26, 1000.000000000000000 ) ;
#214 = ADVANCED_FACE ( 'NONE', ( #79 ), #230, .T. ) ;
#215 = VERTEX_POINT ( 'NONE', #14 ) ;
#216 = DATE_TIME_ROLE ( 'classification_date' ) ;
#217 = CARTESIAN_POINT ( 'NONE',  ( 0.000000000000000000, 0.000000000000000000, 2.199999999999979750 ) ) ;
#218 = ORIENTED_EDGE ( 'NONE', *, *, #178, .F. ) ;
#219 = ADVANCED_FACE ( 'NONE', ( #33 ), #134, .F. ) ;
#220 = FACE_OUTER_BOUND ( 'NONE', #241, .T. ) ;
#221 = APPROVAL ( #28, 'NEURÈENÝ' ) ;
#222 = CARTESIAN_POINT ( 'NONE',  ( 0.000000000000000000, 0.000000000000000000, 2.199999999999979750 ) ) ;
#223 = CIRCLE ( 'NONE', #142, 0.2000000000000000944 ) ;
#224 = CARTESIAN_POINT ( 'NONE',  ( 0.000000000000000000, 0.000000000000000000, 2.000000000000000000 ) ) ;
#225 = VERTEX_POINT ( 'NONE', #270 ) ;
#226 = ADVANCED_FACE ( 'NONE', ( #220 ), #167, .F. ) ;
#227 = DIRECTION ( 'NONE',  ( 0.000000000000000000, 0.000000000000000000, 1.000000000000000000 ) ) ;
#228 = MANIFOLD_SOLID_BREP ( 'Zaoblit1', #128 ) ;
#229 = CIRCLE ( 'NONE', #88, 1.100000000000000089 ) ;
#230 = CYLINDRICAL_SURFACE ( 'NONE', #205, 2.000000000000000000 ) ;
#231 = APPROVAL_DATE_TIME ( #250, #305 ) ;
#232 = CARTESIAN_POINT ( 'NONE',  ( -1.100000000000000089, 0.000000000000000000, 317.0000000000000000 ) ) ;
#233 = FACE_OUTER_BOUND ( 'NONE', #166, .T. ) ;
#234 = DIRECTION ( 'NONE',  ( -0.000000000000000000, -0.000000000000000000, -1.000000000000000000 ) ) ;
#235 = DIRECTION ( 'NONE',  ( -1.000000000000000000, 0.000000000000000000, 0.000000000000000000 ) ) ;
#236 = ADVANCED_FACE ( 'NONE', ( #200 ), #12, .T. ) ;
#237 = DIRECTION ( 'NONE',  ( 0.000000000000000000, 0.000000000000000000, -1.000000000000000000 ) ) ;
#238 = ORIENTED_EDGE ( 'NONE', *, *, #107, .T. ) ;
#239 = AXIS2_PLACEMENT_3D ( 'NONE', #49, #244, #54 ) ;
#240 = PERSON_AND_ORGANIZATION ( #159, #143 ) ;
#241 = EDGE_LOOP ( 'NONE', ( #15, #276, #42, #39 ) ) ;
#242 = CYLINDRICAL_SURFACE ( 'NONE', #84, 1.100000000000000089 ) ;
#243 = CARTESIAN_POINT ( 'NONE',  ( 0.000000000000000000, 0.000000000000000000, 317.0000000000000000 ) ) ;
#244 = DIRECTION ( 'NONE',  ( 0.000000000000000000, 0.000000000000000000, 1.000000000000000000 ) ) ;
#245 = CARTESIAN_POINT ( 'NONE',  ( 0.000000000000000000, 0.000000000000000000, 317.0000000000000000 ) ) ;
#246 = CARTESIAN_POINT ( 'NONE',  ( 0.000000000000000000, 0.000000000000000000, 2.000000000000000000 ) ) ;
#247 = UNCERTAINTY_MEASURE_WITH_UNIT (LENGTH_MEASURE( 1.000000000000000082E-05 ), #256, 'distance_accuracy_value', 'NONE');
#248 = COORDINATED_UNIVERSAL_TIME_OFFSET ( 1, 0, .AHEAD. ) ;
#249 = LOCAL_TIME ( 12, 18, 34.00000000000000000, #105 ) ;
#250 = DATE_AND_TIME ( #160, #268 ) ;
#251 = PERSON_AND_ORGANIZATION ( #159, #143 ) ;
#252 = ORIENTED_EDGE ( 'NONE', *, *, #259, .F. ) ;
#253 = AXIS2_PLACEMENT_3D ( 'NONE', #222, #81, #7 ) ;
#254 = EDGE_CURVE ( 'NONE', #300, #111, #261, .T. ) ;
#255 = VERTEX_POINT ( 'NONE', #18 ) ;
#256 =( LENGTH_UNIT ( ) NAMED_UNIT ( * ) SI_UNIT ( .MILLI., .METRE. ) );
#257 = ORIENTED_EDGE ( 'NONE', *, *, #8, .T. ) ;
#258 = CARTESIAN_POINT ( 'NONE',  ( 2.000000000000000000, 2.449293598294706414E-16, 2.000000000000000000 ) ) ;
#259 = EDGE_CURVE ( 'NONE', #35, #225, #21, .T. ) ;
#260 = CARTESIAN_POINT ( 'NONE',  ( 1.100000000000000089, 1.347111479062088503E-16, 317.0000000000000000 ) ) ;
#261 = CIRCLE ( 'NONE', #19, 1.100000000000000089 ) ;
#262 = PERSON_AND_ORGANIZATION_ROLE ( 'design_supplier' ) ;
#263 = DIRECTION ( 'NONE',  ( 0.000000000000000000, 0.000000000000000000, 1.000000000000000000 ) ) ;
#264 = DATE_AND_TIME ( #23, #291 ) ;
#265 = DIRECTION ( 'NONE',  ( 1.000000000000000000, 0.000000000000000000, 0.000000000000000000 ) ) ;
#266 = SHAPE_DEFINITION_REPRESENTATION ( #138, #287 ) ;
#267 = CIRCLE ( 'NONE', #75, 2.000000000000000000 ) ;
#268 = LOCAL_TIME ( 12, 18, 34.00000000000000000, #248 ) ;
#269 = PRODUCT_DEFINITION ( 'NEZNÁMÝ', '', #304, #137 ) ;
#270 = CARTESIAN_POINT ( 'NONE',  ( -2.000000000000000000, 0.000000000000000000, 0.000000000000000000 ) ) ;
#271 = ORIENTED_EDGE ( 'NONE', *, *, #118, .T. ) ;
#272 = CARTESIAN_POINT ( 'NONE',  ( -1.300000000000000266, 1.592040838891559342E-16, 2.199999999999979750 ) ) ;
#273 = VERTEX_POINT ( 'NONE', #116 ) ;
#274 = APPROVAL_PERSON_ORGANIZATION ( #94, #221, #147 ) ;
#275 = DIRECTION ( 'NONE',  ( 0.000000000000000000, 0.000000000000000000, 1.000000000000000000 ) ) ;
#276 = ORIENTED_EDGE ( 'NONE', *, *, #178, .T. ) ;
#277 = AXIS2_PLACEMENT_3D ( 'NONE', #217, #123, #45 ) ;
#278 = CALENDAR_DATE ( 2022, 20, 6 ) ;
#279 = CC_DESIGN_APPROVAL ( #162, ( #269 ) ) ;
#280 = DIRECTION ( 'NONE',  ( 1.000000000000000000, 0.000000000000000000, 0.000000000000000000 ) ) ;
#281 = ORIENTED_EDGE ( 'NONE', *, *, #65, .T. ) ;
#282 = APPLICATION_PROTOCOL_DEFINITION ( 'international standard', 'config_control_design', 1994, #97 ) ;
#283 = DIRECTION ( 'NONE',  ( 1.000000000000000000, 0.000000000000000000, 0.000000000000000000 ) ) ;
#284 = LINE ( 'NONE', #260, #213 ) ;
#285 = ORIENTED_EDGE ( 'NONE', *, *, #109, .T. ) ;
#286 = CARTESIAN_POINT ( 'NONE',  ( -1.100000000000000089, 0.000000000000000000, 317.0000000000000000 ) ) ;
#287 = ADVANCED_BREP_SHAPE_REPRESENTATION ( '5f87', ( #228, #91 ), #130 ) ;
#288 = APPROVAL_PERSON_ORGANIZATION ( #211, #162, #165 ) ;
#289 = DIRECTION ( 'NONE',  ( -0.000000000000000000, -0.000000000000000000, -1.000000000000000000 ) ) ;
#290 = DIRECTION ( 'NONE',  ( 1.000000000000000000, 0.000000000000000000, 0.000000000000000000 ) ) ;
#291 = LOCAL_TIME ( 12, 18, 34.00000000000000000, #25 ) ;
#292 = CC_DESIGN_PERSON_AND_ORGANIZATION_ASSIGNMENT ( #240, #151, ( #148 ) ) ;
#293 = ORIENTED_EDGE ( 'NONE', *, *, #107, .F. ) ;
#294 = AXIS2_PLACEMENT_3D ( 'NONE', #20, #119, #22 ) ;
#295 = AXIS2_PLACEMENT_3D ( 'NONE', #11, #227, #114 ) ;
#296 = CC_DESIGN_SECURITY_CLASSIFICATION ( #148, ( #304 ) ) ;
#297 = CARTESIAN_POINT ( 'NONE',  ( 0.000000000000000000, 0.000000000000000000, 2.000000000000000000 ) ) ;
#298 = ORIENTED_EDGE ( 'NONE', *, *, #69, .F. ) ;
#299 = APPROVAL_STATUS ( 'not_yet_approved' ) ;
#300 = VERTEX_POINT ( 'NONE', #232 ) ;
#301 = CC_DESIGN_PERSON_AND_ORGANIZATION_ASSIGNMENT ( #251, #170, ( #304 ) ) ;
#302 = CIRCLE ( 'NONE', #294, 1.300000000000000266 ) ;
#303 =( NAMED_UNIT ( * ) SI_UNIT ( $, .STERADIAN. ) SOLID_ANGLE_UNIT ( ) );
#304 = PRODUCT_DEFINITION_FORMATION_WITH_SPECIFIED_SOURCE ( 'LIBOVOLNÝ', '', #172, .NOT_KNOWN. ) ;
#305 = APPROVAL ( #158, 'NEURÈENÝ' ) ;
#306 = LINE ( 'NONE', #86, #152 ) ;
#307 = DATE_TIME_ROLE ( 'creation_date' ) ;
ENDSEC;
END-ISO-10303-21;
