ISO-10303-21;
HEADER;
FILE_DESCRIPTION (( 'STEP AP203' ),
    '1' );
FILE_NAME ('28c8.STEP',
    '2022-06-20T09:32:03',
    ( '' ),
    ( '' ),
    'SwSTEP 2.0',
    'SolidWorks 2019',
    '' );
FILE_SCHEMA (( 'CONFIG_CONTROL_DESIGN' ));
ENDSEC;

DATA;
#1 = DIRECTION ( 'NONE',  ( -0.000000000000000000, -0.000000000000000000, -1.000000000000000000 ) ) ;
#2 = DIRECTION ( 'NONE',  ( -1.000000000000000000, 0.000000000000000000, 0.000000000000000000 ) ) ;
#3 = TOROIDAL_SURFACE ( 'NONE', #51, 6.200000000000001066, 0.2000000000000000111 ) ;
#4 = AXIS2_PLACEMENT_3D ( 'NONE', #105, #266, #59 ) ;
#5 = EDGE_CURVE ( 'NONE', #114, #275, #236, .T. ) ;
#6 = CARTESIAN_POINT ( 'NONE',  ( 0.000000000000000000, 0.000000000000000000, 7.000000000000000000 ) ) ;
#7 = FACE_OUTER_BOUND ( 'NONE', #302, .T. ) ;
#8 = DIRECTION ( 'NONE',  ( 0.000000000000000000, 0.000000000000000000, -1.000000000000000000 ) ) ;
#9 = AXIS2_PLACEMENT_3D ( 'NONE', #200, #198, #169 ) ;
#10 = ADVANCED_FACE ( 'NONE', ( #255 ), #113, .T. ) ;
#11 = DIRECTION ( 'NONE',  ( 0.000000000000000000, 0.000000000000000000, 1.000000000000000000 ) ) ;
#12 = VERTEX_POINT ( 'NONE', #256 ) ;
#13 = AXIS2_PLACEMENT_3D ( 'NONE', #67, #27, #151 ) ;
#14 = APPROVAL ( #84, 'NEURÈENÝ' ) ;
#15 = APPLICATION_CONTEXT ( 'configuration controlled 3d designs of mechanical parts and assemblies' ) ;
#16 = DATE_AND_TIME ( #228, #208 ) ;
#17 = PERSON_AND_ORGANIZATION_ROLE ( 'classification_officer' ) ;
#18 = CC_DESIGN_APPROVAL ( #207, ( #258 ) ) ;
#19 = ORIENTED_EDGE ( 'NONE', *, *, #20, .F. ) ;
#20 = EDGE_CURVE ( 'NONE', #111, #45, #91, .T. ) ;
#21 = ORIENTED_EDGE ( 'NONE', *, *, #23, .T. ) ;
#22 = DIRECTION ( 'NONE',  ( -0.000000000000000000, -0.000000000000000000, -1.000000000000000000 ) ) ;
#23 = EDGE_CURVE ( 'NONE', #111, #267, #128, .T. ) ;
#24 = DIRECTION ( 'NONE',  ( -0.000000000000000000, -0.000000000000000000, -1.000000000000000000 ) ) ;
#25 = CIRCLE ( 'NONE', #70, 0.1999999999999996503 ) ;
#26 = CARTESIAN_POINT ( 'NONE',  ( 6.000000000000000888, 7.347880794884120722E-16, 7.199999999999984190 ) ) ;
#27 = DIRECTION ( 'NONE',  ( 0.000000000000000000, 0.000000000000000000, 1.000000000000000000 ) ) ;
#28 = DIRECTION ( 'NONE',  ( 0.000000000000000000, 0.000000000000000000, 1.000000000000000000 ) ) ;
#29 = APPROVAL_PERSON_ORGANIZATION ( #166, #268, #119 ) ;
#30 = DIRECTION ( 'NONE',  ( -0.000000000000000000, -0.000000000000000000, -1.000000000000000000 ) ) ;
#31 = CARTESIAN_POINT ( 'NONE',  ( 0.000000000000000000, 0.000000000000000000, 7.000000000000000000 ) ) ;
#32 = ADVANCED_FACE ( 'NONE', ( #305 ), #3, .F. ) ;
#33 = CARTESIAN_POINT ( 'NONE',  ( 0.000000000000000000, 0.000000000000000000, 0.000000000000000000 ) ) ;
#34 = AXIS2_PLACEMENT_3D ( 'NONE', #98, #218, #121 ) ;
#35 = CIRCLE ( 'NONE', #274, 6.000000000000000888 ) ;
#36 = DATE_AND_TIME ( #180, #183 ) ;
#37 = EDGE_LOOP ( 'NONE', ( #142, #73, #47, #281 ) ) ;
#38 = ADVANCED_FACE ( 'NONE', ( #184 ), #191, .T. ) ;
#39 = APPROVAL_DATE_TIME ( #60, #268 ) ;
#40 = VECTOR ( 'NONE', #24, 1000.000000000000000 ) ;
#41 = CC_DESIGN_APPROVAL ( #268, ( #108 ) ) ;
#42 = COORDINATED_UNIVERSAL_TIME_OFFSET ( 1, 0, .AHEAD. ) ;
#43 = COORDINATED_UNIVERSAL_TIME_OFFSET ( 1, 0, .AHEAD. ) ;
#44 = EDGE_CURVE ( 'NONE', #234, #12, #58, .T. ) ;
#45 = VERTEX_POINT ( 'NONE', #26 ) ;
#46 = AXIS2_PLACEMENT_3D ( 'NONE', #241, #28, #102 ) ;
#47 = ORIENTED_EDGE ( 'NONE', *, *, #175, .T. ) ;
#48 = ORIENTED_EDGE ( 'NONE', *, *, #44, .T. ) ;
#49 = CC_DESIGN_PERSON_AND_ORGANIZATION_ASSIGNMENT ( #155, #292, ( #225 ) ) ;
#50 = ORIENTED_EDGE ( 'NONE', *, *, #136, .T. ) ;
#51 = AXIS2_PLACEMENT_3D ( 'NONE', #192, #282, #277 ) ;
#52 = ORIENTED_EDGE ( 'NONE', *, *, #20, .T. ) ;
#53 = APPROVAL_PERSON_ORGANIZATION ( #106, #14, #132 ) ;
#54 = LINE ( 'NONE', #55, #93 ) ;
#55 = CARTESIAN_POINT ( 'NONE',  ( -9.000000000000000000, 0.000000000000000000, 7.000000000000000000 ) ) ;
#56 = FACE_BOUND ( 'NONE', #210, .T. ) ;
#57 = CARTESIAN_POINT ( 'NONE',  ( 0.000000000000000000, 0.000000000000000000, 7.199999999999984190 ) ) ;
#58 = LINE ( 'NONE', #240, #189 ) ;
#59 = DIRECTION ( 'NONE',  ( 1.000000000000000000, 0.000000000000000000, -0.000000000000000000 ) ) ;
#60 = DATE_AND_TIME ( #246, #280 ) ;
#61 = EDGE_LOOP ( 'NONE', ( #71, #21 ) ) ;
#62 = CARTESIAN_POINT ( 'NONE',  ( -6.200000000000001066, 7.592810154713590821E-16, 6.999999999999992006 ) ) ;
#63 =( NAMED_UNIT ( * ) SI_UNIT ( $, .STERADIAN. ) SOLID_ANGLE_UNIT ( ) );
#64 = AXIS2_PLACEMENT_3D ( 'NONE', #153, #11, #158 ) ;
#65 = ORIENTED_EDGE ( 'NONE', *, *, #5, .T. ) ;
#66 = ADVANCED_FACE ( 'NONE', ( #146 ), #149, .T. ) ;
#67 = CARTESIAN_POINT ( 'NONE',  ( 0.000000000000000000, 0.000000000000000000, 807.0000000000000000 ) ) ;
#68 = UNCERTAINTY_MEASURE_WITH_UNIT (LENGTH_MEASURE( 1.000000000000000082E-05 ), #297, 'distance_accuracy_value', 'NONE');
#69 = EDGE_LOOP ( 'NONE', ( #72, #216 ) ) ;
#70 = AXIS2_PLACEMENT_3D ( 'NONE', #174, #244, #8 ) ;
#71 = ORIENTED_EDGE ( 'NONE', *, *, #120, .T. ) ;
#72 = ORIENTED_EDGE ( 'NONE', *, *, #212, .T. ) ;
#73 = ORIENTED_EDGE ( 'NONE', *, *, #212, .F. ) ;
#74 = AXIS2_PLACEMENT_3D ( 'NONE', #284, #289, #171 ) ;
#75 = CARTESIAN_POINT ( 'NONE',  ( 0.000000000000000000, 0.000000000000000000, 7.000000000000000000 ) ) ;
#76 = CC_DESIGN_PERSON_AND_ORGANIZATION_ASSIGNMENT ( #251, #17, ( #108 ) ) ;
#77 = CARTESIAN_POINT ( 'NONE',  ( 0.000000000000000000, 0.000000000000000000, 7.199999999999984190 ) ) ;
#78 = DIRECTION ( 'NONE',  ( 1.000000000000000000, 0.000000000000000000, 0.000000000000000000 ) ) ;
#79 = DIRECTION ( 'NONE',  ( -0.000000000000000000, -0.000000000000000000, -1.000000000000000000 ) ) ;
#80 = ADVANCED_FACE ( 'NONE', ( #219 ), #168, .F. ) ;
#81 = AXIS2_PLACEMENT_3D ( 'NONE', #33, #270, #88 ) ;
#82 = CARTESIAN_POINT ( 'NONE',  ( 6.000000000000000888, 7.347880794884120722E-16, 807.0000000000000000 ) ) ;
#83 = APPROVAL_STATUS ( 'not_yet_approved' ) ;
#84 = APPROVAL_STATUS ( 'not_yet_approved' ) ;
#85 = AXIS2_PLACEMENT_3D ( 'NONE', #109, #204, #201 ) ;
#86 = DATE_AND_TIME ( #127, #285 ) ;
#87 = COORDINATED_UNIVERSAL_TIME_OFFSET ( 1, 0, .AHEAD. ) ;
#88 = DIRECTION ( 'NONE',  ( 1.000000000000000000, 0.000000000000000000, 0.000000000000000000 ) ) ;
#89 = EDGE_LOOP ( 'NONE', ( #137, #92, #235, #164 ) ) ;
#90 = SHAPE_DEFINITION_REPRESENTATION ( #300, #116 ) ;
#91 = LINE ( 'NONE', #115, #40 ) ;
#92 = ORIENTED_EDGE ( 'NONE', *, *, #170, .F. ) ;
#93 = VECTOR ( 'NONE', #147, 1000.000000000000000 ) ;
#94 = ORIENTED_EDGE ( 'NONE', *, *, #175, .F. ) ;
#95 = CARTESIAN_POINT ( 'NONE',  ( 6.200000000000001066, 0.000000000000000000, 6.999999999999992006 ) ) ;
#96 = ADVANCED_FACE ( 'NONE', ( #56, #195 ), #150, .T. ) ;
#97 = ORGANIZATION ( 'NEURÈENÝ', 'NEURÈENÝ', '' ) ;
#98 = CARTESIAN_POINT ( 'NONE',  ( 0.000000000000000000, 0.000000000000000000, 7.000000000000000000 ) ) ;
#99 = AXIS2_PLACEMENT_3D ( 'NONE', #265, #30, #125 ) ;
#100 = DIRECTION ( 'NONE',  ( 1.000000000000000000, 0.000000000000000000, 0.000000000000000000 ) ) ;
#101 = CYLINDRICAL_SURFACE ( 'NONE', #202, 6.000000000000000888 ) ;
#102 = DIRECTION ( 'NONE',  ( 1.000000000000000000, 0.000000000000000000, 0.000000000000000000 ) ) ;
#103 = AXIS2_PLACEMENT_3D ( 'NONE', #213, #187, #303 ) ;
#104 = LOCAL_TIME ( 11, 32, 3.000000000000000000, #43 ) ;
#105 = CARTESIAN_POINT ( 'NONE',  ( 0.000000000000000000, 0.000000000000000000, 0.000000000000000000 ) ) ;
#106 = PERSON_AND_ORGANIZATION ( #135, #97 ) ;
#107 = EDGE_CURVE ( 'NONE', #275, #167, #206, .T. ) ;
#108 = SECURITY_CLASSIFICATION ( '', '', #139 ) ;
#109 = CARTESIAN_POINT ( 'NONE',  ( 0.000000000000000000, 0.000000000000000000, 0.000000000000000000 ) ) ;
#110 = PERSON_AND_ORGANIZATION_ROLE ( 'creator' ) ;
#111 = VERTEX_POINT ( 'NONE', #82 ) ;
#112 = APPROVAL_PERSON_ORGANIZATION ( #182, #207, #295 ) ;
#113 = CYLINDRICAL_SURFACE ( 'NONE', #298, 6.000000000000000888 ) ;
#114 = VERTEX_POINT ( 'NONE', #261 ) ;
#115 = CARTESIAN_POINT ( 'NONE',  ( 6.000000000000000888, 7.347880794884120722E-16, 807.0000000000000000 ) ) ;
#116 = ADVANCED_BREP_SHAPE_REPRESENTATION ( '28c8', ( #122, #64 ), #232 ) ;
#117 = CIRCLE ( 'NONE', #46, 9.000000000000000000 ) ;
#118 = ORIENTED_EDGE ( 'NONE', *, *, #283, .T. ) ;
#119 = APPROVAL_ROLE ( '' ) ;
#120 = EDGE_CURVE ( 'NONE', #267, #111, #293, .T. ) ;
#121 = DIRECTION ( 'NONE',  ( 1.000000000000000000, 0.000000000000000000, -0.000000000000000000 ) ) ;
#122 = MANIFOLD_SOLID_BREP ( 'Zaoblit1', #263 ) ;
#123 = DIRECTION ( 'NONE',  ( -0.000000000000000000, -0.000000000000000000, -1.000000000000000000 ) ) ;
#124 = DIRECTION ( 'NONE',  ( 1.000000000000000000, 0.000000000000000000, 0.000000000000000000 ) ) ;
#125 = DIRECTION ( 'NONE',  ( -1.000000000000000000, 0.000000000000000000, 0.000000000000000000 ) ) ;
#126 = DIRECTION ( 'NONE',  ( 0.000000000000000000, 0.000000000000000000, 1.000000000000000000 ) ) ;
#127 = CALENDAR_DATE ( 2022, 20, 6 ) ;
#128 = CIRCLE ( 'NONE', #103, 6.000000000000000888 ) ;
#129 = CARTESIAN_POINT ( 'NONE',  ( -9.000000000000000000, 0.000000000000000000, 7.000000000000000000 ) ) ;
#130 = EDGE_CURVE ( 'NONE', #45, #167, #25, .T. ) ;
#131 = ORIENTED_EDGE ( 'NONE', *, *, #190, .F. ) ;
#132 = APPROVAL_ROLE ( '' ) ;
#133 = ADVANCED_FACE ( 'NONE', ( #242 ), #196, .T. ) ;
#134 = PERSON_AND_ORGANIZATION_ROLE ( 'creator' ) ;
#135 = PERSON ( 'NEURÈENÝ', 'NEURÈENÝ', 'NEURÈENÝ', ('NEURÈENÝ'), ('NEURÈENÝ'), ('NEURÈENÝ') ) ;
#136 = EDGE_CURVE ( 'NONE', #114, #45, #35, .T. ) ;
#137 = ORIENTED_EDGE ( 'NONE', *, *, #5, .F. ) ;
#138 = CIRCLE ( 'NONE', #9, 6.000000000000000888 ) ;
#139 = SECURITY_CLASSIFICATION_LEVEL ( 'unclassified' ) ;
#140 = ORIENTED_EDGE ( 'NONE', *, *, #136, .F. ) ;
#141 = ORIENTED_EDGE ( 'NONE', *, *, #272, .F. ) ;
#142 = ORIENTED_EDGE ( 'NONE', *, *, #44, .F. ) ;
#143 = APPROVAL_STATUS ( 'not_yet_approved' ) ;
#144 = CC_DESIGN_SECURITY_CLASSIFICATION ( #108, ( #215 ) ) ;
#145 = ORIENTED_EDGE ( 'NONE', *, *, #157, .T. ) ;
#146 = FACE_OUTER_BOUND ( 'NONE', #161, .T. ) ;
#147 = DIRECTION ( 'NONE',  ( -0.000000000000000000, -0.000000000000000000, -1.000000000000000000 ) ) ;
#148 = AXIS2_PLACEMENT_3D ( 'NONE', #211, #307, #165 ) ;
#149 = CYLINDRICAL_SURFACE ( 'NONE', #177, 9.000000000000000000 ) ;
#150 = PLANE ( 'NONE',  #34 ) ;
#151 = DIRECTION ( 'NONE',  ( 1.000000000000000000, 0.000000000000000000, -0.000000000000000000 ) ) ;
#152 = CC_DESIGN_PERSON_AND_ORGANIZATION_ASSIGNMENT ( #203, #134, ( #258 ) ) ;
#153 = CARTESIAN_POINT ( 'NONE',  ( 0.000000000000000000, 0.000000000000000000, 0.000000000000000000 ) ) ;
#154 = CC_DESIGN_APPROVAL ( #14, ( #215 ) ) ;
#155 = PERSON_AND_ORGANIZATION ( #135, #97 ) ;
#156 = CARTESIAN_POINT ( 'NONE',  ( -6.000000000000000888, 0.000000000000000000, 807.0000000000000000 ) ) ;
#157 = EDGE_CURVE ( 'NONE', #167, #275, #306, .T. ) ;
#158 = DIRECTION ( 'NONE',  ( 1.000000000000000000, 0.000000000000000000, 0.000000000000000000 ) ) ;
#159 = DATE_TIME_ROLE ( 'classification_date' ) ;
#160 = ORIENTED_EDGE ( 'NONE', *, *, #253, .F. ) ;
#161 = EDGE_LOOP ( 'NONE', ( #131, #48, #118, #94 ) ) ;
#162 = AXIS2_PLACEMENT_3D ( 'NONE', #286, #193, #124 ) ;
#163 = CIRCLE ( 'NONE', #172, 9.000000000000000000 ) ;
#164 = ORIENTED_EDGE ( 'NONE', *, *, #107, .F. ) ;
#165 = DIRECTION ( 'NONE',  ( -1.000000000000000000, 1.224646799147353454E-16, 0.000000000000000000 ) ) ;
#166 = PERSON_AND_ORGANIZATION ( #135, #97 ) ;
#167 = VERTEX_POINT ( 'NONE', #95 ) ;
#168 = TOROIDAL_SURFACE ( 'NONE', #214, 6.200000000000001066, 0.2000000000000000111 ) ;
#169 = DIRECTION ( 'NONE',  ( 1.000000000000000000, 0.000000000000000000, 0.000000000000000000 ) ) ;
#170 = EDGE_CURVE ( 'NONE', #45, #114, #138, .T. ) ;
#171 = DIRECTION ( 'NONE',  ( 1.000000000000000000, 0.000000000000000000, 0.000000000000000000 ) ) ;
#172 = AXIS2_PLACEMENT_3D ( 'NONE', #6, #287, #220 ) ;
#173 = DIRECTION ( 'NONE',  ( -1.000000000000000000, 0.000000000000000000, 0.000000000000000000 ) ) ;
#174 = CARTESIAN_POINT ( 'NONE',  ( 6.200000000000001066, 0.000000000000000000, 7.199999999999984190 ) ) ;
#175 = EDGE_CURVE ( 'NONE', #269, #231, #54, .T. ) ;
#176 = COORDINATED_UNIVERSAL_TIME_OFFSET ( 1, 0, .AHEAD. ) ;
#177 = AXIS2_PLACEMENT_3D ( 'NONE', #31, #123, #2 ) ;
#178 = CARTESIAN_POINT ( 'NONE',  ( -9.000000000000000000, 0.000000000000000000, 0.000000000000000000 ) ) ;
#179 = ORIENTED_EDGE ( 'NONE', *, *, #130, .F. ) ;
#180 = CALENDAR_DATE ( 2022, 20, 6 ) ;
#181 = CARTESIAN_POINT ( 'NONE',  ( -6.000000000000000888, 0.000000000000000000, 807.0000000000000000 ) ) ;
#182 = PERSON_AND_ORGANIZATION ( #135, #97 ) ;
#183 = LOCAL_TIME ( 11, 32, 3.000000000000000000, #176 ) ;
#184 = FACE_OUTER_BOUND ( 'NONE', #61, .T. ) ;
#185 = CC_DESIGN_PERSON_AND_ORGANIZATION_ASSIGNMENT ( #209, #186, ( #215 ) ) ;
#186 = PERSON_AND_ORGANIZATION_ROLE ( 'design_supplier' ) ;
#187 = DIRECTION ( 'NONE',  ( 0.000000000000000000, 0.000000000000000000, 1.000000000000000000 ) ) ;
#188 = ORIENTED_EDGE ( 'NONE', *, *, #23, .F. ) ;
#189 = VECTOR ( 'NONE', #1, 1000.000000000000000 ) ;
#190 = EDGE_CURVE ( 'NONE', #234, #269, #117, .T. ) ;
#191 = PLANE ( 'NONE',  #13 ) ;
#192 = CARTESIAN_POINT ( 'NONE',  ( 0.000000000000000000, 0.000000000000000000, 7.199999999999984190 ) ) ;
#193 = DIRECTION ( 'NONE',  ( 0.000000000000000000, 0.000000000000000000, 1.000000000000000000 ) ) ;
#194 = VECTOR ( 'NONE', #250, 1000.000000000000000 ) ;
#195 = FACE_OUTER_BOUND ( 'NONE', #69, .T. ) ;
#196 = CYLINDRICAL_SURFACE ( 'NONE', #99, 9.000000000000000000 ) ;
#197 = COORDINATED_UNIVERSAL_TIME_OFFSET ( 1, 0, .AHEAD. ) ;
#198 = DIRECTION ( 'NONE',  ( 0.000000000000000000, 0.000000000000000000, 1.000000000000000000 ) ) ;
#199 = CIRCLE ( 'NONE', #81, 9.000000000000000000 ) ;
#200 = CARTESIAN_POINT ( 'NONE',  ( 0.000000000000000000, 0.000000000000000000, 7.199999999999984190 ) ) ;
#201 = DIRECTION ( 'NONE',  ( 1.000000000000000000, 0.000000000000000000, 0.000000000000000000 ) ) ;
#202 = AXIS2_PLACEMENT_3D ( 'NONE', #288, #79, #173 ) ;
#203 = PERSON_AND_ORGANIZATION ( #135, #97 ) ;
#204 = DIRECTION ( 'NONE',  ( 0.000000000000000000, 0.000000000000000000, 1.000000000000000000 ) ) ;
#205 = DIRECTION ( 'NONE',  ( -1.000000000000000000, 0.000000000000000000, 0.000000000000000000 ) ) ;
#206 = CIRCLE ( 'NONE', #74, 6.200000000000001066 ) ;
#207 = APPROVAL ( #83, 'NEURÈENÝ' ) ;
#208 = LOCAL_TIME ( 11, 32, 3.000000000000000000, #87 ) ;
#209 = PERSON_AND_ORGANIZATION ( #135, #97 ) ;
#210 = EDGE_LOOP ( 'NONE', ( #145, #233 ) ) ;
#211 = CARTESIAN_POINT ( 'NONE',  ( -6.200000000000001066, 7.592810154713590821E-16, 7.199999999999984190 ) ) ;
#212 = EDGE_CURVE ( 'NONE', #269, #234, #163, .T. ) ;
#213 = CARTESIAN_POINT ( 'NONE',  ( 0.000000000000000000, 0.000000000000000000, 807.0000000000000000 ) ) ;
#214 = AXIS2_PLACEMENT_3D ( 'NONE', #57, #259, #78 ) ;
#215 = PRODUCT_DEFINITION_FORMATION_WITH_SPECIFIED_SOURCE ( 'LIBOVOLNÝ', '', #225, .NOT_KNOWN. ) ;
#216 = ORIENTED_EDGE ( 'NONE', *, *, #190, .T. ) ;
#217 = DIRECTION ( 'NONE',  ( -0.000000000000000000, -0.000000000000000000, -1.000000000000000000 ) ) ;
#218 = DIRECTION ( 'NONE',  ( 0.000000000000000000, 0.000000000000000000, 1.000000000000000000 ) ) ;
#219 = FACE_OUTER_BOUND ( 'NONE', #254, .T. ) ;
#220 = DIRECTION ( 'NONE',  ( 1.000000000000000000, 0.000000000000000000, 0.000000000000000000 ) ) ;
#221 = PLANE ( 'NONE',  #4 ) ;
#222 = APPROVAL_DATE_TIME ( #86, #207 ) ;
#223 = CARTESIAN_POINT ( 'NONE',  ( 9.000000000000000000, 1.102182119232617714E-15, 7.000000000000000000 ) ) ;
#224 = ADVANCED_FACE ( 'NONE', ( #7 ), #101, .T. ) ;
#225 = PRODUCT ( '28c8', '28c8', '', ( #294 ) ) ;
#226 = LINE ( 'NONE', #181, #194 ) ;
#227 = APPLICATION_PROTOCOL_DEFINITION ( 'international standard', 'config_control_design', 1994, #15 ) ;
#228 = CALENDAR_DATE ( 2022, 20, 6 ) ;
#229 = ADVANCED_FACE ( 'NONE', ( #264 ), #221, .F. ) ;
#230 = PERSON_AND_ORGANIZATION ( #135, #97 ) ;
#231 = VERTEX_POINT ( 'NONE', #178 ) ;
#232 =( GEOMETRIC_REPRESENTATION_CONTEXT ( 3 ) GLOBAL_UNCERTAINTY_ASSIGNED_CONTEXT ( ( #68 ) ) GLOBAL_UNIT_ASSIGNED_CONTEXT ( ( #297, #271, #63 ) ) REPRESENTATION_CONTEXT ( 'NONE', 'WORKASPACE' ) );
#233 = ORIENTED_EDGE ( 'NONE', *, *, #107, .T. ) ;
#234 = VERTEX_POINT ( 'NONE', #223 ) ;
#235 = ORIENTED_EDGE ( 'NONE', *, *, #130, .T. ) ;
#236 = CIRCLE ( 'NONE', #148, 0.1999999999999996503 ) ;
#237 = AXIS2_PLACEMENT_3D ( 'NONE', #75, #217, #260 ) ;
#238 = CARTESIAN_POINT ( 'NONE',  ( 0.000000000000000000, 0.000000000000000000, 807.0000000000000000 ) ) ;
#239 = CC_DESIGN_PERSON_AND_ORGANIZATION_ASSIGNMENT ( #230, #110, ( #215 ) ) ;
#240 = CARTESIAN_POINT ( 'NONE',  ( 9.000000000000000000, 1.102182119232617714E-15, 7.000000000000000000 ) ) ;
#241 = CARTESIAN_POINT ( 'NONE',  ( 0.000000000000000000, 0.000000000000000000, 7.000000000000000000 ) ) ;
#242 = FACE_OUTER_BOUND ( 'NONE', #37, .T. ) ;
#243 = CC_DESIGN_DATE_AND_TIME_ASSIGNMENT ( #296, #159, ( #108 ) ) ;
#244 = DIRECTION ( 'NONE',  ( 0.000000000000000000, -1.000000000000000000, 0.000000000000000000 ) ) ;
#245 = CIRCLE ( 'NONE', #85, 9.000000000000000000 ) ;
#246 = CALENDAR_DATE ( 2022, 20, 6 ) ;
#247 = APPLICATION_PROTOCOL_DEFINITION ( 'international standard', 'config_control_design', 1994, #304 ) ;
#248 = DATE_TIME_ROLE ( 'creation_date' ) ;
#249 = ORIENTED_EDGE ( 'NONE', *, *, #170, .T. ) ;
#250 = DIRECTION ( 'NONE',  ( -0.000000000000000000, -0.000000000000000000, -1.000000000000000000 ) ) ;
#251 = PERSON_AND_ORGANIZATION ( #135, #97 ) ;
#252 = EDGE_LOOP ( 'NONE', ( #188, #52, #249, #141 ) ) ;
#253 = EDGE_CURVE ( 'NONE', #231, #12, #199, .T. ) ;
#254 = EDGE_LOOP ( 'NONE', ( #140, #65, #278, #179 ) ) ;
#255 = FACE_OUTER_BOUND ( 'NONE', #252, .T. ) ;
#256 = CARTESIAN_POINT ( 'NONE',  ( 9.000000000000000000, 1.102182119232617714E-15, 0.000000000000000000 ) ) ;
#257 = ORIENTED_EDGE ( 'NONE', *, *, #283, .F. ) ;
#258 = PRODUCT_DEFINITION ( 'NEZNÁMÝ', '', #215, #301 ) ;
#259 = DIRECTION ( 'NONE',  ( 0.000000000000000000, 0.000000000000000000, 1.000000000000000000 ) ) ;
#260 = DIRECTION ( 'NONE',  ( 1.000000000000000000, 0.000000000000000000, 0.000000000000000000 ) ) ;
#261 = CARTESIAN_POINT ( 'NONE',  ( -6.000000000000000888, 0.000000000000000000, 7.199999999999984190 ) ) ;
#262 = PRODUCT_RELATED_PRODUCT_CATEGORY ( 'detail', '', ( #225 ) ) ;
#263 = CLOSED_SHELL ( 'NONE', ( #80, #10, #66, #133, #96, #229, #224, #38, #32 ) ) ;
#264 = FACE_OUTER_BOUND ( 'NONE', #299, .T. ) ;
#265 = CARTESIAN_POINT ( 'NONE',  ( 0.000000000000000000, 0.000000000000000000, 7.000000000000000000 ) ) ;
#266 = DIRECTION ( 'NONE',  ( 0.000000000000000000, 0.000000000000000000, 1.000000000000000000 ) ) ;
#267 = VERTEX_POINT ( 'NONE', #156 ) ;
#268 = APPROVAL ( #143, 'NEURÈENÝ' ) ;
#269 = VERTEX_POINT ( 'NONE', #129 ) ;
#270 = DIRECTION ( 'NONE',  ( 0.000000000000000000, 0.000000000000000000, 1.000000000000000000 ) ) ;
#271 =( NAMED_UNIT ( * ) PLANE_ANGLE_UNIT ( ) SI_UNIT ( $, .RADIAN. ) );
#272 = EDGE_CURVE ( 'NONE', #267, #114, #226, .T. ) ;
#273 = APPROVAL_DATE_TIME ( #16, #14 ) ;
#274 = AXIS2_PLACEMENT_3D ( 'NONE', #77, #126, #100 ) ;
#275 = VERTEX_POINT ( 'NONE', #62 ) ;
#276 = CALENDAR_DATE ( 2022, 20, 6 ) ;
#277 = DIRECTION ( 'NONE',  ( 1.000000000000000000, 0.000000000000000000, 0.000000000000000000 ) ) ;
#278 = ORIENTED_EDGE ( 'NONE', *, *, #157, .F. ) ;
#279 = ORIENTED_EDGE ( 'NONE', *, *, #272, .T. ) ;
#280 = LOCAL_TIME ( 11, 32, 3.000000000000000000, #197 ) ;
#281 = ORIENTED_EDGE ( 'NONE', *, *, #253, .T. ) ;
#282 = DIRECTION ( 'NONE',  ( 0.000000000000000000, 0.000000000000000000, 1.000000000000000000 ) ) ;
#283 = EDGE_CURVE ( 'NONE', #12, #231, #245, .T. ) ;
#284 = CARTESIAN_POINT ( 'NONE',  ( 0.000000000000000000, 0.000000000000000000, 7.000000000000000000 ) ) ;
#285 = LOCAL_TIME ( 11, 32, 3.000000000000000000, #42 ) ;
#286 = CARTESIAN_POINT ( 'NONE',  ( 0.000000000000000000, 0.000000000000000000, 807.0000000000000000 ) ) ;
#287 = DIRECTION ( 'NONE',  ( 0.000000000000000000, 0.000000000000000000, 1.000000000000000000 ) ) ;
#288 = CARTESIAN_POINT ( 'NONE',  ( 0.000000000000000000, 0.000000000000000000, 807.0000000000000000 ) ) ;
#289 = DIRECTION ( 'NONE',  ( -0.000000000000000000, -0.000000000000000000, -1.000000000000000000 ) ) ;
#290 = ORIENTED_EDGE ( 'NONE', *, *, #120, .F. ) ;
#291 = CC_DESIGN_DATE_AND_TIME_ASSIGNMENT ( #36, #248, ( #258 ) ) ;
#292 = PERSON_AND_ORGANIZATION_ROLE ( 'design_owner' ) ;
#293 = CIRCLE ( 'NONE', #162, 6.000000000000000888 ) ;
#294 = MECHANICAL_CONTEXT ( 'NONE', #304, 'mechanical' ) ;
#295 = APPROVAL_ROLE ( '' ) ;
#296 = DATE_AND_TIME ( #276, #104 ) ;
#297 =( LENGTH_UNIT ( ) NAMED_UNIT ( * ) SI_UNIT ( .MILLI., .METRE. ) );
#298 = AXIS2_PLACEMENT_3D ( 'NONE', #238, #22, #205 ) ;
#299 = EDGE_LOOP ( 'NONE', ( #160, #257 ) ) ;
#300 = PRODUCT_DEFINITION_SHAPE ( 'NONE', 'NONE',  #258 ) ;
#301 = DESIGN_CONTEXT ( 'detailed design', #15, 'design' ) ;
#302 = EDGE_LOOP ( 'NONE', ( #19, #290, #279, #50 ) ) ;
#303 = DIRECTION ( 'NONE',  ( 1.000000000000000000, 0.000000000000000000, 0.000000000000000000 ) ) ;
#304 = APPLICATION_CONTEXT ( 'configuration controlled 3d designs of mechanical parts and assemblies' ) ;
#305 = FACE_OUTER_BOUND ( 'NONE', #89, .T. ) ;
#306 = CIRCLE ( 'NONE', #237, 6.200000000000001066 ) ;
#307 = DIRECTION ( 'NONE',  ( 1.224646799147353207E-16, 1.000000000000000000, -0.000000000000000000 ) ) ;
ENDSEC;
END-ISO-10303-21;
