ISO-10303-21;
HEADER;
FILE_DESCRIPTION (( 'STEP AP203' ),
    '1' );
FILE_NAME ('8dc8.STEP',
    '2022-06-20T10:19:24',
    ( '' ),
    ( '' ),
    'SwSTEP 2.0',
    'SolidWorks 2019',
    '' );
FILE_SCHEMA (( 'CONFIG_CONTROL_DESIGN' ));
ENDSEC;

DATA;
#1 = LOCAL_TIME ( 12, 19, 24.00000000000000000, #43 ) ;
#2 = VERTEX_POINT ( 'NONE', #24 ) ;
#3 = APPROVAL_ROLE ( '' ) ;
#4 = DIRECTION ( 'NONE',  ( 0.000000000000000000, -1.000000000000000000, 0.000000000000000000 ) ) ;
#5 = DIRECTION ( 'NONE',  ( 1.000000000000000000, 0.000000000000000000, 0.000000000000000000 ) ) ;
#6 = CARTESIAN_POINT ( 'NONE',  ( 1.100000000000000089, 1.347111479062088503E-16, 127.0000000000000000 ) ) ;
#7 = CARTESIAN_POINT ( 'NONE',  ( -2.000000000000000000, 0.000000000000000000, 0.000000000000000000 ) ) ;
#8 = DIRECTION ( 'NONE',  ( -0.000000000000000000, -0.000000000000000000, -1.000000000000000000 ) ) ;
#9 = EDGE_CURVE ( 'NONE', #187, #35, #127, .T. ) ;
#10 = ORIENTED_EDGE ( 'NONE', *, *, #301, .F. ) ;
#11 = CIRCLE ( 'NONE', #51, 1.100000000000000089 ) ;
#12 =( GEOMETRIC_REPRESENTATION_CONTEXT ( 3 ) GLOBAL_UNCERTAINTY_ASSIGNED_CONTEXT ( ( #233 ) ) GLOBAL_UNIT_ASSIGNED_CONTEXT ( ( #291, #66, #19 ) ) REPRESENTATION_CONTEXT ( 'NONE', 'WORKASPACE' ) );
#13 = DIRECTION ( 'NONE',  ( 1.000000000000000000, 0.000000000000000000, 0.000000000000000000 ) ) ;
#14 = ORIENTED_EDGE ( 'NONE', *, *, #119, .F. ) ;
#15 = DIRECTION ( 'NONE',  ( 0.000000000000000000, 0.000000000000000000, 1.000000000000000000 ) ) ;
#16 = APPROVAL_STATUS ( 'not_yet_approved' ) ;
#17 = EDGE_CURVE ( 'NONE', #184, #35, #152, .T. ) ;
#18 = DIRECTION ( 'NONE',  ( 0.000000000000000000, 0.000000000000000000, 1.000000000000000000 ) ) ;
#19 =( NAMED_UNIT ( * ) SI_UNIT ( $, .STERADIAN. ) SOLID_ANGLE_UNIT ( ) );
#20 = DIRECTION ( 'NONE',  ( 0.000000000000000000, 0.000000000000000000, 1.000000000000000000 ) ) ;
#21 = CALENDAR_DATE ( 2022, 20, 6 ) ;
#22 = CARTESIAN_POINT ( 'NONE',  ( 1.300000000000000266, 0.000000000000000000, 1.999999999999996669 ) ) ;
#23 = CARTESIAN_POINT ( 'NONE',  ( -1.100000000000000089, 0.000000000000000000, 2.199999999999993516 ) ) ;
#24 = CARTESIAN_POINT ( 'NONE',  ( 2.000000000000000000, 2.449293598294706414E-16, 2.000000000000000000 ) ) ;
#25 = CARTESIAN_POINT ( 'NONE',  ( 1.300000000000000266, 0.000000000000000000, 2.199999999999993516 ) ) ;
#26 = VERTEX_POINT ( 'NONE', #292 ) ;
#27 = PERSON_AND_ORGANIZATION_ROLE ( 'classification_officer' ) ;
#28 = CC_DESIGN_DATE_AND_TIME_ASSIGNMENT ( #191, #161, ( #77 ) ) ;
#29 = FACE_OUTER_BOUND ( 'NONE', #121, .T. ) ;
#30 = COORDINATED_UNIVERSAL_TIME_OFFSET ( 1, 0, .AHEAD. ) ;
#31 = CARTESIAN_POINT ( 'NONE',  ( -2.000000000000000000, 0.000000000000000000, 2.000000000000000000 ) ) ;
#32 = CIRCLE ( 'NONE', #225, 1.100000000000000089 ) ;
#33 = CIRCLE ( 'NONE', #117, 2.000000000000000000 ) ;
#34 = PLANE ( 'NONE',  #74 ) ;
#35 = VERTEX_POINT ( 'NONE', #22 ) ;
#36 = FACE_OUTER_BOUND ( 'NONE', #252, .T. ) ;
#37 = ADVANCED_FACE ( 'NONE', ( #217 ), #287, .F. ) ;
#38 = AXIS2_PLACEMENT_3D ( 'NONE', #25, #4, #293 ) ;
#39 = SECURITY_CLASSIFICATION ( '', '', #275 ) ;
#40 = CARTESIAN_POINT ( 'NONE',  ( -1.100000000000000089, 0.000000000000000000, 127.0000000000000000 ) ) ;
#41 = AXIS2_PLACEMENT_3D ( 'NONE', #303, #98, #82 ) ;
#42 = EDGE_LOOP ( 'NONE', ( #227, #264 ) ) ;
#43 = COORDINATED_UNIVERSAL_TIME_OFFSET ( 1, 0, .AHEAD. ) ;
#44 = LINE ( 'NONE', #6, #272 ) ;
#45 = CARTESIAN_POINT ( 'NONE',  ( 1.100000000000000089, 1.347111479062088503E-16, 127.0000000000000000 ) ) ;
#46 = AXIS2_PLACEMENT_3D ( 'NONE', #146, #59, #158 ) ;
#47 = ORIENTED_EDGE ( 'NONE', *, *, #164, .F. ) ;
#48 = CARTESIAN_POINT ( 'NONE',  ( 0.000000000000000000, 0.000000000000000000, 2.000000000000000000 ) ) ;
#49 = CC_DESIGN_PERSON_AND_ORGANIZATION_ASSIGNMENT ( #165, #259, ( #77 ) ) ;
#50 = DIRECTION ( 'NONE',  ( 0.000000000000000000, 0.000000000000000000, 1.000000000000000000 ) ) ;
#51 = AXIS2_PLACEMENT_3D ( 'NONE', #173, #20, #307 ) ;
#52 = PRODUCT_DEFINITION_SHAPE ( 'NONE', 'NONE',  #77 ) ;
#53 = DIRECTION ( 'NONE',  ( -1.000000000000000000, 0.000000000000000000, 0.000000000000000000 ) ) ;
#54 = VECTOR ( 'NONE', #8, 1000.000000000000000 ) ;
#55 = PERSON_AND_ORGANIZATION ( #162, #218 ) ;
#56 = CC_DESIGN_DATE_AND_TIME_ASSIGNMENT ( #247, #99, ( #39 ) ) ;
#57 = APPROVAL ( #150, 'NEURÈENÝ' ) ;
#58 = DIRECTION ( 'NONE',  ( 1.000000000000000000, 0.000000000000000000, 0.000000000000000000 ) ) ;
#59 = DIRECTION ( 'NONE',  ( 0.000000000000000000, 0.000000000000000000, 1.000000000000000000 ) ) ;
#60 = COORDINATED_UNIVERSAL_TIME_OFFSET ( 1, 0, .AHEAD. ) ;
#61 = APPROVAL_ROLE ( '' ) ;
#62 = ORIENTED_EDGE ( 'NONE', *, *, #92, .F. ) ;
#63 = VECTOR ( 'NONE', #126, 1000.000000000000000 ) ;
#64 = CARTESIAN_POINT ( 'NONE',  ( 2.000000000000000000, 2.449293598294706414E-16, 2.000000000000000000 ) ) ;
#65 = EDGE_CURVE ( 'NONE', #290, #184, #172, .T. ) ;
#66 =( NAMED_UNIT ( * ) PLANE_ANGLE_UNIT ( ) SI_UNIT ( $, .RADIAN. ) );
#67 = CARTESIAN_POINT ( 'NONE',  ( -1.300000000000000266, 1.592040838891559342E-16, 2.199999999999993516 ) ) ;
#68 = VERTEX_POINT ( 'NONE', #45 ) ;
#69 = AXIS2_PLACEMENT_3D ( 'NONE', #107, #133, #229 ) ;
#70 = ORIENTED_EDGE ( 'NONE', *, *, #119, .T. ) ;
#71 = COORDINATED_UNIVERSAL_TIME_OFFSET ( 1, 0, .AHEAD. ) ;
#72 = PLANE ( 'NONE',  #228 ) ;
#73 = FACE_OUTER_BOUND ( 'NONE', #159, .T. ) ;
#74 = AXIS2_PLACEMENT_3D ( 'NONE', #256, #15, #219 ) ;
#75 = APPROVAL_DATE_TIME ( #114, #305 ) ;
#76 = LOCAL_TIME ( 12, 19, 24.00000000000000000, #71 ) ;
#77 = PRODUCT_DEFINITION ( 'NEZNÁMÝ', '', #276, #136 ) ;
#78 = DIRECTION ( 'NONE',  ( -0.000000000000000000, -0.000000000000000000, -1.000000000000000000 ) ) ;
#79 = ORIENTED_EDGE ( 'NONE', *, *, #65, .F. ) ;
#80 = CIRCLE ( 'NONE', #111, 1.300000000000000266 ) ;
#81 = DIRECTION ( 'NONE',  ( 1.000000000000000000, 0.000000000000000000, 0.000000000000000000 ) ) ;
#82 = DIRECTION ( 'NONE',  ( 1.000000000000000000, 0.000000000000000000, -0.000000000000000000 ) ) ;
#83 = ORIENTED_EDGE ( 'NONE', *, *, #284, .T. ) ;
#84 = CALENDAR_DATE ( 2022, 20, 6 ) ;
#85 = VECTOR ( 'NONE', #266, 1000.000000000000000 ) ;
#86 = DIRECTION ( 'NONE',  ( 1.000000000000000000, 0.000000000000000000, 0.000000000000000000 ) ) ;
#87 = APPROVAL ( #230, 'NEURÈENÝ' ) ;
#88 = DIRECTION ( 'NONE',  ( 1.000000000000000000, 0.000000000000000000, 0.000000000000000000 ) ) ;
#89 = ORIENTED_EDGE ( 'NONE', *, *, #250, .T. ) ;
#90 = DATE_AND_TIME ( #269, #76 ) ;
#91 = DIRECTION ( 'NONE',  ( 0.000000000000000000, 0.000000000000000000, 1.000000000000000000 ) ) ;
#92 = EDGE_CURVE ( 'NONE', #68, #155, #32, .T. ) ;
#93 = DIRECTION ( 'NONE',  ( -0.000000000000000000, -0.000000000000000000, -1.000000000000000000 ) ) ;
#94 = LOCAL_TIME ( 12, 19, 24.00000000000000000, #60 ) ;
#95 = AXIS2_PLACEMENT_3D ( 'NONE', #149, #50, #13 ) ;
#96 = DIRECTION ( 'NONE',  ( -0.000000000000000000, -0.000000000000000000, -1.000000000000000000 ) ) ;
#97 = SHAPE_DEFINITION_REPRESENTATION ( #52, #222 ) ;
#98 = DIRECTION ( 'NONE',  ( 0.000000000000000000, 0.000000000000000000, 1.000000000000000000 ) ) ;
#99 = DATE_TIME_ROLE ( 'classification_date' ) ;
#100 = CARTESIAN_POINT ( 'NONE',  ( 0.000000000000000000, 0.000000000000000000, 2.000000000000000000 ) ) ;
#101 = AXIS2_PLACEMENT_3D ( 'NONE', #156, #253, #234 ) ;
#102 = PRODUCT ( '8dc8', '8dc8', '', ( #190 ) ) ;
#103 = EDGE_CURVE ( 'NONE', #155, #68, #11, .T. ) ;
#104 = DIRECTION ( 'NONE',  ( -1.000000000000000000, 0.000000000000000000, 0.000000000000000000 ) ) ;
#105 = ORIENTED_EDGE ( 'NONE', *, *, #65, .T. ) ;
#106 = CIRCLE ( 'NONE', #148, 1.100000000000000089 ) ;
#107 = CARTESIAN_POINT ( 'NONE',  ( 0.000000000000000000, 0.000000000000000000, 127.0000000000000000 ) ) ;
#108 = CARTESIAN_POINT ( 'NONE',  ( -1.300000000000000266, 1.592040838891559342E-16, 1.999999999999996669 ) ) ;
#109 = EDGE_LOOP ( 'NONE', ( #194, #174, #199, #139 ) ) ;
#110 = EDGE_CURVE ( 'NONE', #2, #26, #192, .T. ) ;
#111 = AXIS2_PLACEMENT_3D ( 'NONE', #182, #279, #58 ) ;
#112 = APPLICATION_CONTEXT ( 'configuration controlled 3d designs of mechanical parts and assemblies' ) ;
#113 = CC_DESIGN_PERSON_AND_ORGANIZATION_ASSIGNMENT ( #244, #178, ( #276 ) ) ;
#114 = DATE_AND_TIME ( #21, #1 ) ;
#115 = DIRECTION ( 'NONE',  ( 0.000000000000000000, 0.000000000000000000, 1.000000000000000000 ) ) ;
#116 = PERSON_AND_ORGANIZATION_ROLE ( 'creator' ) ;
#117 = AXIS2_PLACEMENT_3D ( 'NONE', #100, #201, #81 ) ;
#118 = ORIENTED_EDGE ( 'NONE', *, *, #103, .F. ) ;
#119 = EDGE_CURVE ( 'NONE', #68, #187, #44, .T. ) ;
#120 = DIRECTION ( 'NONE',  ( -1.000000000000000000, 1.224646799147353207E-16, 0.000000000000000000 ) ) ;
#121 = EDGE_LOOP ( 'NONE', ( #47, #10 ) ) ;
#122 = CLOSED_SHELL ( 'NONE', ( #242, #248, #128, #151, #198, #221, #180, #134, #37 ) ) ;
#123 = CIRCLE ( 'NONE', #101, 2.000000000000000000 ) ;
#124 = CARTESIAN_POINT ( 'NONE',  ( -1.100000000000000089, 0.000000000000000000, 127.0000000000000000 ) ) ;
#125 = CC_DESIGN_PERSON_AND_ORGANIZATION_ASSIGNMENT ( #295, #27, ( #39 ) ) ;
#126 = DIRECTION ( 'NONE',  ( -0.000000000000000000, -0.000000000000000000, -1.000000000000000000 ) ) ;
#127 = CIRCLE ( 'NONE', #38, 0.2000000000000000944 ) ;
#128 = ADVANCED_FACE ( 'NONE', ( #196 ), #294, .T. ) ;
#129 = MANIFOLD_SOLID_BREP ( 'Zaoblit1', #122 ) ;
#130 = PLANE ( 'NONE',  #41 ) ;
#131 = EDGE_LOOP ( 'NONE', ( #79, #142, #143, #239 ) ) ;
#132 = LINE ( 'NONE', #40, #63 ) ;
#133 = DIRECTION ( 'NONE',  ( -0.000000000000000000, -0.000000000000000000, -1.000000000000000000 ) ) ;
#134 = ADVANCED_FACE ( 'NONE', ( #270 ), #34, .T. ) ;
#135 = DIRECTION ( 'NONE',  ( 0.000000000000000000, 0.000000000000000000, 1.000000000000000000 ) ) ;
#136 = DESIGN_CONTEXT ( 'detailed design', #179, 'design' ) ;
#137 = PRODUCT_RELATED_PRODUCT_CATEGORY ( 'detail', '', ( #102 ) ) ;
#138 = VERTEX_POINT ( 'NONE', #7 ) ;
#139 = ORIENTED_EDGE ( 'NONE', *, *, #250, .F. ) ;
#140 = CARTESIAN_POINT ( 'NONE',  ( 0.000000000000000000, 0.000000000000000000, 0.000000000000000000 ) ) ;
#141 = AXIS2_PLACEMENT_3D ( 'NONE', #263, #115, #170 ) ;
#142 = ORIENTED_EDGE ( 'NONE', *, *, #298, .F. ) ;
#143 = ORIENTED_EDGE ( 'NONE', *, *, #9, .T. ) ;
#144 = APPROVAL_DATE_TIME ( #90, #57 ) ;
#145 = ORIENTED_EDGE ( 'NONE', *, *, #171, .F. ) ;
#146 = CARTESIAN_POINT ( 'NONE',  ( 0.000000000000000000, 0.000000000000000000, 0.000000000000000000 ) ) ;
#147 = AXIS2_PLACEMENT_3D ( 'NONE', #216, #210, #86 ) ;
#148 = AXIS2_PLACEMENT_3D ( 'NONE', #283, #236, #88 ) ;
#149 = CARTESIAN_POINT ( 'NONE',  ( 0.000000000000000000, 0.000000000000000000, 2.199999999999993516 ) ) ;
#150 = APPROVAL_STATUS ( 'not_yet_approved' ) ;
#151 = ADVANCED_FACE ( 'NONE', ( #281 ), #226, .T. ) ;
#152 = CIRCLE ( 'NONE', #147, 1.300000000000000266 ) ;
#153 = CC_DESIGN_APPROVAL ( #87, ( #77 ) ) ;
#154 = DIRECTION ( 'NONE',  ( -1.000000000000000000, 0.000000000000000000, 0.000000000000000000 ) ) ;
#155 = VERTEX_POINT ( 'NONE', #124 ) ;
#156 = CARTESIAN_POINT ( 'NONE',  ( 0.000000000000000000, 0.000000000000000000, 2.000000000000000000 ) ) ;
#157 = ORIENTED_EDGE ( 'NONE', *, *, #9, .F. ) ;
#158 = DIRECTION ( 'NONE',  ( 1.000000000000000000, 0.000000000000000000, 0.000000000000000000 ) ) ;
#159 = EDGE_LOOP ( 'NONE', ( #62, #70, #211, #145 ) ) ;
#160 = CC_DESIGN_APPROVAL ( #305, ( #276 ) ) ;
#161 = DATE_TIME_ROLE ( 'creation_date' ) ;
#162 = PERSON ( 'NEURÈENÝ', 'NEURÈENÝ', 'NEURÈENÝ', ('NEURÈENÝ'), ('NEURÈENÝ'), ('NEURÈENÝ') ) ;
#163 = COORDINATED_UNIVERSAL_TIME_OFFSET ( 1, 0, .AHEAD. ) ;
#164 = EDGE_CURVE ( 'NONE', #138, #26, #185, .T. ) ;
#165 = PERSON_AND_ORGANIZATION ( #162, #218 ) ;
#166 = ORIENTED_EDGE ( 'NONE', *, *, #110, .F. ) ;
#167 = APPROVAL_PERSON_ORGANIZATION ( #288, #305, #262 ) ;
#168 = APPLICATION_PROTOCOL_DEFINITION ( 'international standard', 'config_control_design', 1994, #112 ) ;
#169 = EDGE_LOOP ( 'NONE', ( #166, #235, #89, #280 ) ) ;
#170 = DIRECTION ( 'NONE',  ( 1.000000000000000000, 0.000000000000000000, 0.000000000000000000 ) ) ;
#171 = EDGE_CURVE ( 'NONE', #155, #290, #132, .T. ) ;
#172 = CIRCLE ( 'NONE', #206, 0.2000000000000000944 ) ;
#173 = CARTESIAN_POINT ( 'NONE',  ( 0.000000000000000000, 0.000000000000000000, 127.0000000000000000 ) ) ;
#174 = ORIENTED_EDGE ( 'NONE', *, *, #110, .T. ) ;
#175 = CARTESIAN_POINT ( 'NONE',  ( 0.000000000000000000, 0.000000000000000000, 2.000000000000000000 ) ) ;
#176 = EDGE_CURVE ( 'NONE', #290, #187, #232, .T. ) ;
#177 = CARTESIAN_POINT ( 'NONE',  ( 0.000000000000000000, 0.000000000000000000, 2.199999999999993516 ) ) ;
#178 = PERSON_AND_ORGANIZATION_ROLE ( 'design_supplier' ) ;
#179 = APPLICATION_CONTEXT ( 'configuration controlled 3d designs of mechanical parts and assemblies' ) ;
#180 = ADVANCED_FACE ( 'NONE', ( #36 ), #203, .T. ) ;
#181 = FACE_OUTER_BOUND ( 'NONE', #261, .T. ) ;
#182 = CARTESIAN_POINT ( 'NONE',  ( 0.000000000000000000, 0.000000000000000000, 2.000000000000000000 ) ) ;
#183 = CYLINDRICAL_SURFACE ( 'NONE', #208, 1.100000000000000089 ) ;
#184 = VERTEX_POINT ( 'NONE', #108 ) ;
#185 = CIRCLE ( 'NONE', #46, 2.000000000000000000 ) ;
#186 = APPROVAL_DATE_TIME ( #304, #87 ) ;
#187 = VERTEX_POINT ( 'NONE', #296 ) ;
#188 = AXIS2_PLACEMENT_3D ( 'NONE', #299, #78, #53 ) ;
#189 = PERSON_AND_ORGANIZATION ( #162, #218 ) ;
#190 = MECHANICAL_CONTEXT ( 'NONE', #112, 'mechanical' ) ;
#191 = DATE_AND_TIME ( #84, #94 ) ;
#192 = LINE ( 'NONE', #64, #85 ) ;
#193 = TOROIDAL_SURFACE ( 'NONE', #267, 1.300000000000000266, 0.2000000000000000111 ) ;
#194 = ORIENTED_EDGE ( 'NONE', *, *, #284, .F. ) ;
#195 = EDGE_LOOP ( 'NONE', ( #282, #83 ) ) ;
#196 = FACE_OUTER_BOUND ( 'NONE', #109, .T. ) ;
#197 = LOCAL_TIME ( 12, 19, 24.00000000000000000, #30 ) ;
#198 = ADVANCED_FACE ( 'NONE', ( #251, #220 ), #72, .T. ) ;
#199 = ORIENTED_EDGE ( 'NONE', *, *, #301, .T. ) ;
#200 = DIRECTION ( 'NONE',  ( 1.000000000000000000, 0.000000000000000000, -0.000000000000000000 ) ) ;
#201 = DIRECTION ( 'NONE',  ( 0.000000000000000000, 0.000000000000000000, 1.000000000000000000 ) ) ;
#202 = LINE ( 'NONE', #31, #54 ) ;
#203 = CYLINDRICAL_SURFACE ( 'NONE', #69, 1.100000000000000089 ) ;
#204 = EDGE_LOOP ( 'NONE', ( #278, #243 ) ) ;
#205 = CALENDAR_DATE ( 2022, 20, 6 ) ;
#206 = AXIS2_PLACEMENT_3D ( 'NONE', #67, #215, #120 ) ;
#207 = DIRECTION ( 'NONE',  ( 1.000000000000000000, 0.000000000000000000, 0.000000000000000000 ) ) ;
#208 = AXIS2_PLACEMENT_3D ( 'NONE', #223, #273, #104 ) ;
#209 = CARTESIAN_POINT ( 'NONE',  ( 0.000000000000000000, 0.000000000000000000, 0.000000000000000000 ) ) ;
#210 = DIRECTION ( 'NONE',  ( -0.000000000000000000, -0.000000000000000000, -1.000000000000000000 ) ) ;
#211 = ORIENTED_EDGE ( 'NONE', *, *, #298, .T. ) ;
#212 = CC_DESIGN_PERSON_AND_ORGANIZATION_ASSIGNMENT ( #271, #116, ( #276 ) ) ;
#213 = APPROVAL_PERSON_ORGANIZATION ( #55, #57, #3 ) ;
#214 = CALENDAR_DATE ( 2022, 20, 6 ) ;
#215 = DIRECTION ( 'NONE',  ( 1.224646799147353207E-16, 1.000000000000000000, -0.000000000000000000 ) ) ;
#216 = CARTESIAN_POINT ( 'NONE',  ( 0.000000000000000000, 0.000000000000000000, 2.000000000000000000 ) ) ;
#217 = FACE_OUTER_BOUND ( 'NONE', #131, .T. ) ;
#218 = ORGANIZATION ( 'NEURÈENÝ', 'NEURÈENÝ', '' ) ;
#219 = DIRECTION ( 'NONE',  ( 1.000000000000000000, 0.000000000000000000, -0.000000000000000000 ) ) ;
#220 = FACE_OUTER_BOUND ( 'NONE', #195, .T. ) ;
#221 = ADVANCED_FACE ( 'NONE', ( #29 ), #130, .F. ) ;
#222 = ADVANCED_BREP_SHAPE_REPRESENTATION ( '8dc8', ( #129, #274 ), #12 ) ;
#223 = CARTESIAN_POINT ( 'NONE',  ( 0.000000000000000000, 0.000000000000000000, 127.0000000000000000 ) ) ;
#224 = VERTEX_POINT ( 'NONE', #297 ) ;
#225 = AXIS2_PLACEMENT_3D ( 'NONE', #268, #91, #5 ) ;
#226 = CYLINDRICAL_SURFACE ( 'NONE', #188, 2.000000000000000000 ) ;
#227 = ORIENTED_EDGE ( 'NONE', *, *, #265, .T. ) ;
#228 = AXIS2_PLACEMENT_3D ( 'NONE', #175, #245, #200 ) ;
#229 = DIRECTION ( 'NONE',  ( -1.000000000000000000, 0.000000000000000000, 0.000000000000000000 ) ) ;
#230 = APPROVAL_STATUS ( 'not_yet_approved' ) ;
#231 = PERSON_AND_ORGANIZATION ( #162, #218 ) ;
#232 = CIRCLE ( 'NONE', #95, 1.100000000000000089 ) ;
#233 = UNCERTAINTY_MEASURE_WITH_UNIT (LENGTH_MEASURE( 1.000000000000000082E-05 ), #291, 'distance_accuracy_value', 'NONE');
#234 = DIRECTION ( 'NONE',  ( 1.000000000000000000, 0.000000000000000000, 0.000000000000000000 ) ) ;
#235 = ORIENTED_EDGE ( 'NONE', *, *, #258, .F. ) ;
#236 = DIRECTION ( 'NONE',  ( 0.000000000000000000, 0.000000000000000000, 1.000000000000000000 ) ) ;
#237 = CC_DESIGN_PERSON_AND_ORGANIZATION_ASSIGNMENT ( #231, #306, ( #102 ) ) ;
#238 = ORIENTED_EDGE ( 'NONE', *, *, #265, .F. ) ;
#239 = ORIENTED_EDGE ( 'NONE', *, *, #17, .F. ) ;
#240 = CC_DESIGN_APPROVAL ( #57, ( #39 ) ) ;
#241 = ORIENTED_EDGE ( 'NONE', *, *, #171, .T. ) ;
#242 = ADVANCED_FACE ( 'NONE', ( #181 ), #193, .F. ) ;
#243 = ORIENTED_EDGE ( 'NONE', *, *, #92, .T. ) ;
#244 = PERSON_AND_ORGANIZATION ( #162, #218 ) ;
#245 = DIRECTION ( 'NONE',  ( 0.000000000000000000, 0.000000000000000000, 1.000000000000000000 ) ) ;
#246 = DIRECTION ( 'NONE',  ( 1.000000000000000000, 0.000000000000000000, 0.000000000000000000 ) ) ;
#247 = DATE_AND_TIME ( #214, #197 ) ;
#248 = ADVANCED_FACE ( 'NONE', ( #73 ), #183, .T. ) ;
#249 = CIRCLE ( 'NONE', #260, 2.000000000000000000 ) ;
#250 = EDGE_CURVE ( 'NONE', #224, #138, #202, .T. ) ;
#251 = FACE_BOUND ( 'NONE', #42, .T. ) ;
#252 = EDGE_LOOP ( 'NONE', ( #14, #118, #241, #254 ) ) ;
#253 = DIRECTION ( 'NONE',  ( 0.000000000000000000, 0.000000000000000000, 1.000000000000000000 ) ) ;
#254 = ORIENTED_EDGE ( 'NONE', *, *, #176, .T. ) ;
#255 = AXIS2_PLACEMENT_3D ( 'NONE', #48, #96, #154 ) ;
#256 = CARTESIAN_POINT ( 'NONE',  ( 0.000000000000000000, 0.000000000000000000, 127.0000000000000000 ) ) ;
#257 = LOCAL_TIME ( 12, 19, 24.00000000000000000, #163 ) ;
#258 = EDGE_CURVE ( 'NONE', #224, #2, #33, .T. ) ;
#259 = PERSON_AND_ORGANIZATION_ROLE ( 'creator' ) ;
#260 = AXIS2_PLACEMENT_3D ( 'NONE', #140, #18, #207 ) ;
#261 = EDGE_LOOP ( 'NONE', ( #302, #105, #238, #157 ) ) ;
#262 = APPROVAL_ROLE ( '' ) ;
#263 = CARTESIAN_POINT ( 'NONE',  ( 0.000000000000000000, 0.000000000000000000, 2.199999999999993516 ) ) ;
#264 = ORIENTED_EDGE ( 'NONE', *, *, #17, .T. ) ;
#265 = EDGE_CURVE ( 'NONE', #35, #184, #80, .T. ) ;
#266 = DIRECTION ( 'NONE',  ( -0.000000000000000000, -0.000000000000000000, -1.000000000000000000 ) ) ;
#267 = AXIS2_PLACEMENT_3D ( 'NONE', #177, #277, #246 ) ;
#268 = CARTESIAN_POINT ( 'NONE',  ( 0.000000000000000000, 0.000000000000000000, 127.0000000000000000 ) ) ;
#269 = CALENDAR_DATE ( 2022, 20, 6 ) ;
#270 = FACE_OUTER_BOUND ( 'NONE', #204, .T. ) ;
#271 = PERSON_AND_ORGANIZATION ( #162, #218 ) ;
#272 = VECTOR ( 'NONE', #93, 1000.000000000000000 ) ;
#273 = DIRECTION ( 'NONE',  ( -0.000000000000000000, -0.000000000000000000, -1.000000000000000000 ) ) ;
#274 = AXIS2_PLACEMENT_3D ( 'NONE', #209, #135, #285 ) ;
#275 = SECURITY_CLASSIFICATION_LEVEL ( 'unclassified' ) ;
#276 = PRODUCT_DEFINITION_FORMATION_WITH_SPECIFIED_SOURCE ( 'LIBOVOLNÝ', '', #102, .NOT_KNOWN. ) ;
#277 = DIRECTION ( 'NONE',  ( 0.000000000000000000, 0.000000000000000000, 1.000000000000000000 ) ) ;
#278 = ORIENTED_EDGE ( 'NONE', *, *, #103, .T. ) ;
#279 = DIRECTION ( 'NONE',  ( -0.000000000000000000, -0.000000000000000000, -1.000000000000000000 ) ) ;
#280 = ORIENTED_EDGE ( 'NONE', *, *, #164, .T. ) ;
#281 = FACE_OUTER_BOUND ( 'NONE', #169, .T. ) ;
#282 = ORIENTED_EDGE ( 'NONE', *, *, #258, .T. ) ;
#283 = CARTESIAN_POINT ( 'NONE',  ( 0.000000000000000000, 0.000000000000000000, 2.199999999999993516 ) ) ;
#284 = EDGE_CURVE ( 'NONE', #2, #224, #123, .T. ) ;
#285 = DIRECTION ( 'NONE',  ( 1.000000000000000000, 0.000000000000000000, 0.000000000000000000 ) ) ;
#286 = APPLICATION_PROTOCOL_DEFINITION ( 'international standard', 'config_control_design', 1994, #179 ) ;
#287 = TOROIDAL_SURFACE ( 'NONE', #141, 1.300000000000000266, 0.2000000000000000111 ) ;
#288 = PERSON_AND_ORGANIZATION ( #162, #218 ) ;
#289 = CC_DESIGN_SECURITY_CLASSIFICATION ( #39, ( #276 ) ) ;
#290 = VERTEX_POINT ( 'NONE', #23 ) ;
#291 =( LENGTH_UNIT ( ) NAMED_UNIT ( * ) SI_UNIT ( .MILLI., .METRE. ) );
#292 = CARTESIAN_POINT ( 'NONE',  ( 2.000000000000000000, 2.449293598294706414E-16, 0.000000000000000000 ) ) ;
#293 = DIRECTION ( 'NONE',  ( 0.000000000000000000, 0.000000000000000000, -1.000000000000000000 ) ) ;
#294 = CYLINDRICAL_SURFACE ( 'NONE', #255, 2.000000000000000000 ) ;
#295 = PERSON_AND_ORGANIZATION ( #162, #218 ) ;
#296 = CARTESIAN_POINT ( 'NONE',  ( 1.100000000000000089, 1.347111479062088503E-16, 2.199999999999993516 ) ) ;
#297 = CARTESIAN_POINT ( 'NONE',  ( -2.000000000000000000, 0.000000000000000000, 2.000000000000000000 ) ) ;
#298 = EDGE_CURVE ( 'NONE', #187, #290, #106, .T. ) ;
#299 = CARTESIAN_POINT ( 'NONE',  ( 0.000000000000000000, 0.000000000000000000, 2.000000000000000000 ) ) ;
#300 = APPROVAL_PERSON_ORGANIZATION ( #189, #87, #61 ) ;
#301 = EDGE_CURVE ( 'NONE', #26, #138, #249, .T. ) ;
#302 = ORIENTED_EDGE ( 'NONE', *, *, #176, .F. ) ;
#303 = CARTESIAN_POINT ( 'NONE',  ( 0.000000000000000000, 0.000000000000000000, 0.000000000000000000 ) ) ;
#304 = DATE_AND_TIME ( #205, #257 ) ;
#305 = APPROVAL ( #16, 'NEURÈENÝ' ) ;
#306 = PERSON_AND_ORGANIZATION_ROLE ( 'design_owner' ) ;
#307 = DIRECTION ( 'NONE',  ( 1.000000000000000000, 0.000000000000000000, 0.000000000000000000 ) ) ;
ENDSEC;
END-ISO-10303-21;
