ISO-10303-21;
HEADER;
FILE_DESCRIPTION (( 'STEP AP203' ),
    '1' );
FILE_NAME ('a9c2.STEP',
    '2022-06-20T10:09:07',
    ( '' ),
    ( '' ),
    'SwSTEP 2.0',
    'SolidWorks 2019',
    '' );
FILE_SCHEMA (( 'CONFIG_CONTROL_DESIGN' ));
ENDSEC;

DATA;
#1 = ORIENTED_EDGE ( 'NONE', *, *, #70, .F. ) ;
#2 = EDGE_CURVE ( 'NONE', #153, #248, #13, .T. ) ;
#3 = CARTESIAN_POINT ( 'NONE',  ( 4.000000000000000000, 4.898587196589412829E-16, 0.000000000000000000 ) ) ;
#4 = DIRECTION ( 'NONE',  ( -0.000000000000000000, -0.000000000000000000, -1.000000000000000000 ) ) ;
#5 = FACE_BOUND ( 'NONE', #220, .T. ) ;
#6 = DIRECTION ( 'NONE',  ( 1.000000000000000000, 0.000000000000000000, 0.000000000000000000 ) ) ;
#7 = CARTESIAN_POINT ( 'NONE',  ( -2.000000000000000000, 0.000000000000000000, 3.199999999999980638 ) ) ;
#8 = ORGANIZATION ( 'NEURÈENÝ', 'NEURÈENÝ', '' ) ;
#9 = APPROVAL_STATUS ( 'not_yet_approved' ) ;
#10 = LINE ( 'NONE', #99, #291 ) ;
#11 = AXIS2_PLACEMENT_3D ( 'NONE', #190, #296, #265 ) ;
#12 = DIRECTION ( 'NONE',  ( 0.000000000000000000, 0.000000000000000000, 1.000000000000000000 ) ) ;
#13 = CIRCLE ( 'NONE', #33, 0.2000000000000000944 ) ;
#14 = DATE_TIME_ROLE ( 'classification_date' ) ;
#15 = CARTESIAN_POINT ( 'NONE',  ( -2.200000000000000178, 2.694222958124177006E-16, 3.199999999999980638 ) ) ;
#16 = AXIS2_PLACEMENT_3D ( 'NONE', #137, #24, #182 ) ;
#17 = ORIENTED_EDGE ( 'NONE', *, *, #35, .T. ) ;
#18 = ORIENTED_EDGE ( 'NONE', *, *, #161, .T. ) ;
#19 = AXIS2_PLACEMENT_3D ( 'NONE', #209, #185, #67 ) ;
#20 = PERSON_AND_ORGANIZATION ( #163, #8 ) ;
#21 = VERTEX_POINT ( 'NONE', #112 ) ;
#22 = ORIENTED_EDGE ( 'NONE', *, *, #131, .T. ) ;
#23 = DIRECTION ( 'NONE',  ( -0.000000000000000000, -0.000000000000000000, -1.000000000000000000 ) ) ;
#24 = DIRECTION ( 'NONE',  ( 0.000000000000000000, 0.000000000000000000, 1.000000000000000000 ) ) ;
#25 = CARTESIAN_POINT ( 'NONE',  ( 0.000000000000000000, 0.000000000000000000, 0.000000000000000000 ) ) ;
#26 = AXIS2_PLACEMENT_3D ( 'NONE', #122, #215, #267 ) ;
#27 = FACE_OUTER_BOUND ( 'NONE', #134, .T. ) ;
#28 = EDGE_CURVE ( 'NONE', #172, #153, #38, .T. ) ;
#29 = DIRECTION ( 'NONE',  ( -1.000000000000000000, 0.000000000000000000, 0.000000000000000000 ) ) ;
#30 = PERSON_AND_ORGANIZATION_ROLE ( 'design_owner' ) ;
#31 = AXIS2_PLACEMENT_3D ( 'NONE', #283, #4, #258 ) ;
#32 = CARTESIAN_POINT ( 'NONE',  ( 0.000000000000000000, 0.000000000000000000, 503.0000000000000000 ) ) ;
#33 = AXIS2_PLACEMENT_3D ( 'NONE', #200, #89, #177 ) ;
#34 = CC_DESIGN_DATE_AND_TIME_ASSIGNMENT ( #176, #65, ( #168 ) ) ;
#35 = EDGE_CURVE ( 'NONE', #21, #127, #179, .T. ) ;
#36 = DIRECTION ( 'NONE',  ( -0.000000000000000000, -0.000000000000000000, -1.000000000000000000 ) ) ;
#37 = AXIS2_PLACEMENT_3D ( 'NONE', #139, #118, #136 ) ;
#38 = LINE ( 'NONE', #202, #208 ) ;
#39 = PERSON_AND_ORGANIZATION ( #163, #8 ) ;
#40 = ORIENTED_EDGE ( 'NONE', *, *, #120, .F. ) ;
#41 = ORIENTED_EDGE ( 'NONE', *, *, #28, .T. ) ;
#42 = CLOSED_SHELL ( 'NONE', ( #183, #239, #299, #189, #164, #80, #54, #115, #279 ) ) ;
#43 = APPROVAL_STATUS ( 'not_yet_approved' ) ;
#44 = EDGE_LOOP ( 'NONE', ( #197, #1, #59, #22 ) ) ;
#45 = CIRCLE ( 'NONE', #16, 4.000000000000000000 ) ;
#46 = FACE_OUTER_BOUND ( 'NONE', #44, .T. ) ;
#47 = CARTESIAN_POINT ( 'NONE',  ( -2.200000000000000178, 2.694222958124177006E-16, 2.999999999999990674 ) ) ;
#48 = EDGE_CURVE ( 'NONE', #148, #194, #155, .T. ) ;
#49 = CARTESIAN_POINT ( 'NONE',  ( -4.000000000000000000, 0.000000000000000000, 0.000000000000000000 ) ) ;
#50 = CARTESIAN_POINT ( 'NONE',  ( 0.000000000000000000, 0.000000000000000000, 503.0000000000000000 ) ) ;
#51 = CIRCLE ( 'NONE', #201, 2.200000000000000178 ) ;
#52 = DIRECTION ( 'NONE',  ( 1.000000000000000000, 0.000000000000000000, 0.000000000000000000 ) ) ;
#53 = DIRECTION ( 'NONE',  ( 1.000000000000000000, 0.000000000000000000, 0.000000000000000000 ) ) ;
#54 = ADVANCED_FACE ( 'NONE', ( #46 ), #233, .T. ) ;
#55 = CARTESIAN_POINT ( 'NONE',  ( 0.000000000000000000, 0.000000000000000000, 3.000000000000000000 ) ) ;
#56 =( LENGTH_UNIT ( ) NAMED_UNIT ( * ) SI_UNIT ( .MILLI., .METRE. ) );
#57 = APPLICATION_PROTOCOL_DEFINITION ( 'international standard', 'config_control_design', 1994, #142 ) ;
#58 = EDGE_LOOP ( 'NONE', ( #40, #17, #18, #66 ) ) ;
#59 = ORIENTED_EDGE ( 'NONE', *, *, #254, .T. ) ;
#60 = ORIENTED_EDGE ( 'NONE', *, *, #187, .T. ) ;
#61 = LOCAL_TIME ( 12, 9, 7.000000000000000000, #126 ) ;
#62 = COORDINATED_UNIVERSAL_TIME_OFFSET ( 1, 0, .AHEAD. ) ;
#63 = VERTEX_POINT ( 'NONE', #49 ) ;
#64 = APPROVAL ( #43, 'NEURÈENÝ' ) ;
#65 = DATE_TIME_ROLE ( 'creation_date' ) ;
#66 = ORIENTED_EDGE ( 'NONE', *, *, #242, .F. ) ;
#67 = DIRECTION ( 'NONE',  ( 1.000000000000000000, 0.000000000000000000, 0.000000000000000000 ) ) ;
#68 = CIRCLE ( 'NONE', #231, 2.000000000000000000 ) ;
#69 = CYLINDRICAL_SURFACE ( 'NONE', #31, 4.000000000000000000 ) ;
#70 = EDGE_CURVE ( 'NONE', #274, #172, #167, .T. ) ;
#71 = DIRECTION ( 'NONE',  ( 0.000000000000000000, 0.000000000000000000, 1.000000000000000000 ) ) ;
#72 = CARTESIAN_POINT ( 'NONE',  ( -4.000000000000000000, 0.000000000000000000, 3.000000000000000000 ) ) ;
#73 = DIRECTION ( 'NONE',  ( 0.000000000000000000, 0.000000000000000000, 1.000000000000000000 ) ) ;
#74 = CARTESIAN_POINT ( 'NONE',  ( -2.000000000000000000, 0.000000000000000000, 503.0000000000000000 ) ) ;
#75 = ORIENTED_EDGE ( 'NONE', *, *, #2, .T. ) ;
#76 = LINE ( 'NONE', #74, #95 ) ;
#77 = PRODUCT_DEFINITION_FORMATION_WITH_SPECIFIED_SOURCE ( 'LIBOVOLNÝ', '', #256, .NOT_KNOWN. ) ;
#78 = CARTESIAN_POINT ( 'NONE',  ( 0.000000000000000000, 0.000000000000000000, 3.000000000000000000 ) ) ;
#79 =( NAMED_UNIT ( * ) PLANE_ANGLE_UNIT ( ) SI_UNIT ( $, .RADIAN. ) );
#80 = ADVANCED_FACE ( 'NONE', ( #27 ), #230, .F. ) ;
#81 = CC_DESIGN_SECURITY_CLASSIFICATION ( #278, ( #77 ) ) ;
#82 = UNCERTAINTY_MEASURE_WITH_UNIT (LENGTH_MEASURE( 1.000000000000000082E-05 ), #56, 'distance_accuracy_value', 'NONE');
#83 = VERTEX_POINT ( 'NONE', #72 ) ;
#84 = ORIENTED_EDGE ( 'NONE', *, *, #247, .T. ) ;
#85 = PERSON_AND_ORGANIZATION_ROLE ( 'design_supplier' ) ;
#86 = ORIENTED_EDGE ( 'NONE', *, *, #70, .T. ) ;
#87 = CIRCLE ( 'NONE', #261, 2.200000000000000178 ) ;
#88 = APPROVAL_DATE_TIME ( #98, #222 ) ;
#89 = DIRECTION ( 'NONE',  ( 0.000000000000000000, -1.000000000000000000, 0.000000000000000000 ) ) ;
#90 = DIRECTION ( 'NONE',  ( -0.000000000000000000, -0.000000000000000000, -1.000000000000000000 ) ) ;
#91 = DIRECTION ( 'NONE',  ( 1.000000000000000000, 0.000000000000000000, 0.000000000000000000 ) ) ;
#92 = DIRECTION ( 'NONE',  ( 1.000000000000000000, 0.000000000000000000, -0.000000000000000000 ) ) ;
#93 = PLANE ( 'NONE',  #273 ) ;
#94 = FACE_OUTER_BOUND ( 'NONE', #246, .T. ) ;
#95 = VECTOR ( 'NONE', #170, 1000.000000000000000 ) ;
#96 = CARTESIAN_POINT ( 'NONE',  ( 2.000000000000000000, 2.449293598294706414E-16, 503.0000000000000000 ) ) ;
#97 = APPROVAL_ROLE ( '' ) ;
#98 = DATE_AND_TIME ( #264, #284 ) ;
#99 = CARTESIAN_POINT ( 'NONE',  ( -4.000000000000000000, 0.000000000000000000, 3.000000000000000000 ) ) ;
#100 = CIRCLE ( 'NONE', #135, 4.000000000000000000 ) ;
#101 = DIRECTION ( 'NONE',  ( 1.000000000000000000, 0.000000000000000000, 0.000000000000000000 ) ) ;
#102 = COORDINATED_UNIVERSAL_TIME_OFFSET ( 1, 0, .AHEAD. ) ;
#103 = MANIFOLD_SOLID_BREP ( 'Zaoblit1', #42 ) ;
#104 = PERSON_AND_ORGANIZATION ( #163, #8 ) ;
#105 = DIRECTION ( 'NONE',  ( 1.224646799147353207E-16, 1.000000000000000000, -0.000000000000000000 ) ) ;
#106 = ORIENTED_EDGE ( 'NONE', *, *, #35, .F. ) ;
#107 = APPROVAL_DATE_TIME ( #304, #288 ) ;
#108 = AXIS2_PLACEMENT_3D ( 'NONE', #25, #138, #206 ) ;
#109 = EDGE_LOOP ( 'NONE', ( #244, #251, #281, #305 ) ) ;
#110 = SECURITY_CLASSIFICATION_LEVEL ( 'unclassified' ) ;
#111 = ORIENTED_EDGE ( 'NONE', *, *, #254, .F. ) ;
#112 = CARTESIAN_POINT ( 'NONE',  ( 4.000000000000000000, 4.898587196589412829E-16, 3.000000000000000000 ) ) ;
#113 = FACE_OUTER_BOUND ( 'NONE', #125, .T. ) ;
#114 = AXIS2_PLACEMENT_3D ( 'NONE', #203, #204, #6 ) ;
#115 = ADVANCED_FACE ( 'NONE', ( #117 ), #282, .T. ) ;
#116 = DIRECTION ( 'NONE',  ( 1.000000000000000000, 0.000000000000000000, 0.000000000000000000 ) ) ;
#117 = FACE_OUTER_BOUND ( 'NONE', #277, .T. ) ;
#118 = DIRECTION ( 'NONE',  ( 0.000000000000000000, 0.000000000000000000, 1.000000000000000000 ) ) ;
#119 = APPLICATION_PROTOCOL_DEFINITION ( 'international standard', 'config_control_design', 1994, #269 ) ;
#120 = EDGE_CURVE ( 'NONE', #21, #83, #286, .T. ) ;
#121 = CYLINDRICAL_SURFACE ( 'NONE', #145, 4.000000000000000000 ) ;
#122 = CARTESIAN_POINT ( 'NONE',  ( 0.000000000000000000, 0.000000000000000000, 503.0000000000000000 ) ) ;
#123 = CARTESIAN_POINT ( 'NONE',  ( 0.000000000000000000, 0.000000000000000000, 0.000000000000000000 ) ) ;
#124 = APPROVAL_STATUS ( 'not_yet_approved' ) ;
#125 = EDGE_LOOP ( 'NONE', ( #106, #221, #303, #175 ) ) ;
#126 = COORDINATED_UNIVERSAL_TIME_OFFSET ( 1, 0, .AHEAD. ) ;
#127 = VERTEX_POINT ( 'NONE', #3 ) ;
#128 = TOROIDAL_SURFACE ( 'NONE', #11, 2.200000000000000178, 0.2000000000000000111 ) ;
#129 = CC_DESIGN_PERSON_AND_ORGANIZATION_ASSIGNMENT ( #20, #217, ( #77 ) ) ;
#130 = ORIENTED_EDGE ( 'NONE', *, *, #290, .F. ) ;
#131 = EDGE_CURVE ( 'NONE', #148, #153, #235, .T. ) ;
#132 = APPROVAL_ROLE ( '' ) ;
#133 = EDGE_LOOP ( 'NONE', ( #253, #41, #193, #111 ) ) ;
#134 = EDGE_LOOP ( 'NONE', ( #150, #224 ) ) ;
#135 = AXIS2_PLACEMENT_3D ( 'NONE', #285, #71, #160 ) ;
#136 = DIRECTION ( 'NONE',  ( 1.000000000000000000, 0.000000000000000000, 0.000000000000000000 ) ) ;
#137 = CARTESIAN_POINT ( 'NONE',  ( 0.000000000000000000, 0.000000000000000000, 3.000000000000000000 ) ) ;
#138 = DIRECTION ( 'NONE',  ( 0.000000000000000000, 0.000000000000000000, 1.000000000000000000 ) ) ;
#139 = CARTESIAN_POINT ( 'NONE',  ( 0.000000000000000000, 0.000000000000000000, 3.000000000000000000 ) ) ;
#140 = CARTESIAN_POINT ( 'NONE',  ( 0.000000000000000000, 0.000000000000000000, 3.000000000000000000 ) ) ;
#141 = DIRECTION ( 'NONE',  ( -0.000000000000000000, -0.000000000000000000, -1.000000000000000000 ) ) ;
#142 = APPLICATION_CONTEXT ( 'configuration controlled 3d designs of mechanical parts and assemblies' ) ;
#143 = CC_DESIGN_APPROVAL ( #222, ( #168 ) ) ;
#144 = CARTESIAN_POINT ( 'NONE',  ( 2.200000000000000178, 0.000000000000000000, 2.999999999999990674 ) ) ;
#145 = AXIS2_PLACEMENT_3D ( 'NONE', #78, #263, #169 ) ;
#146 = PERSON_AND_ORGANIZATION_ROLE ( 'classification_officer' ) ;
#147 = EDGE_LOOP ( 'NONE', ( #225, #173, #75, #130 ) ) ;
#148 = VERTEX_POINT ( 'NONE', #7 ) ;
#149 = SHAPE_DEFINITION_REPRESENTATION ( #300, #272 ) ;
#150 = ORIENTED_EDGE ( 'NONE', *, *, #214, .F. ) ;
#151 = PRODUCT_RELATED_PRODUCT_CATEGORY ( 'detail', '', ( #256 ) ) ;
#152 = PERSON_AND_ORGANIZATION ( #163, #8 ) ;
#153 = VERTEX_POINT ( 'NONE', #207 ) ;
#154 = COORDINATED_UNIVERSAL_TIME_OFFSET ( 1, 0, .AHEAD. ) ;
#155 = CIRCLE ( 'NONE', #191, 0.2000000000000000944 ) ;
#156 = ORIENTED_EDGE ( 'NONE', *, *, #120, .T. ) ;
#157 = CARTESIAN_POINT ( 'NONE',  ( 0.000000000000000000, 0.000000000000000000, 3.199999999999980638 ) ) ;
#158 = APPROVAL_PERSON_ORGANIZATION ( #104, #64, #132 ) ;
#159 = CARTESIAN_POINT ( 'NONE',  ( 0.000000000000000000, 0.000000000000000000, 3.199999999999980638 ) ) ;
#160 = DIRECTION ( 'NONE',  ( 1.000000000000000000, 0.000000000000000000, 0.000000000000000000 ) ) ;
#161 = EDGE_CURVE ( 'NONE', #127, #63, #245, .T. ) ;
#162 = CARTESIAN_POINT ( 'NONE',  ( 0.000000000000000000, 0.000000000000000000, 503.0000000000000000 ) ) ;
#163 = PERSON ( 'NEURÈENÝ', 'NEURÈENÝ', 'NEURÈENÝ', ('NEURÈENÝ'), ('NEURÈENÝ'), ('NEURÈENÝ') ) ;
#164 = ADVANCED_FACE ( 'NONE', ( #5, #94 ), #93, .T. ) ;
#165 = AXIS2_PLACEMENT_3D ( 'NONE', #32, #294, #186 ) ;
#166 = CARTESIAN_POINT ( 'NONE',  ( 0.000000000000000000, 0.000000000000000000, 503.0000000000000000 ) ) ;
#167 = CIRCLE ( 'NONE', #216, 2.000000000000000000 ) ;
#168 = PRODUCT_DEFINITION ( 'NEZNÁMÝ', '', #77, #243 ) ;
#169 = DIRECTION ( 'NONE',  ( -1.000000000000000000, 0.000000000000000000, 0.000000000000000000 ) ) ;
#170 = DIRECTION ( 'NONE',  ( -0.000000000000000000, -0.000000000000000000, -1.000000000000000000 ) ) ;
#171 = APPROVAL_PERSON_ORGANIZATION ( #211, #222, #97 ) ;
#172 = VERTEX_POINT ( 'NONE', #96 ) ;
#173 = ORIENTED_EDGE ( 'NONE', *, *, #181, .F. ) ;
#174 = DATE_AND_TIME ( #198, #61 ) ;
#175 = ORIENTED_EDGE ( 'NONE', *, *, #214, .T. ) ;
#176 = DATE_AND_TIME ( #196, #210 ) ;
#177 = DIRECTION ( 'NONE',  ( 0.000000000000000000, 0.000000000000000000, -1.000000000000000000 ) ) ;
#178 = AXIS2_PLACEMENT_3D ( 'NONE', #50, #260, #29 ) ;
#179 = LINE ( 'NONE', #218, #195 ) ;
#180 = FACE_OUTER_BOUND ( 'NONE', #109, .T. ) ;
#181 = EDGE_CURVE ( 'NONE', #153, #148, #68, .T. ) ;
#182 = DIRECTION ( 'NONE',  ( 1.000000000000000000, 0.000000000000000000, 0.000000000000000000 ) ) ;
#183 = ADVANCED_FACE ( 'NONE', ( #180 ), #306, .F. ) ;
#184 = CYLINDRICAL_SURFACE ( 'NONE', #26, 2.000000000000000000 ) ;
#185 = DIRECTION ( 'NONE',  ( 0.000000000000000000, 0.000000000000000000, 1.000000000000000000 ) ) ;
#186 = DIRECTION ( 'NONE',  ( 1.000000000000000000, 0.000000000000000000, 0.000000000000000000 ) ) ;
#187 = EDGE_CURVE ( 'NONE', #248, #194, #87, .T. ) ;
#188 = COORDINATED_UNIVERSAL_TIME_OFFSET ( 1, 0, .AHEAD. ) ;
#189 = ADVANCED_FACE ( 'NONE', ( #113 ), #69, .T. ) ;
#190 = CARTESIAN_POINT ( 'NONE',  ( 0.000000000000000000, 0.000000000000000000, 3.199999999999980638 ) ) ;
#191 = AXIS2_PLACEMENT_3D ( 'NONE', #15, #105, #302 ) ;
#192 = PERSON_AND_ORGANIZATION ( #163, #8 ) ;
#193 = ORIENTED_EDGE ( 'NONE', *, *, #181, .T. ) ;
#194 = VERTEX_POINT ( 'NONE', #47 ) ;
#195 = VECTOR ( 'NONE', #36, 1000.000000000000000 ) ;
#196 = CALENDAR_DATE ( 2022, 20, 6 ) ;
#197 = ORIENTED_EDGE ( 'NONE', *, *, #28, .F. ) ;
#198 = CALENDAR_DATE ( 2022, 20, 6 ) ;
#199 = CC_DESIGN_PERSON_AND_ORGANIZATION_ASSIGNMENT ( #152, #146, ( #278 ) ) ;
#200 = CARTESIAN_POINT ( 'NONE',  ( 2.200000000000000178, 0.000000000000000000, 3.199999999999980638 ) ) ;
#201 = AXIS2_PLACEMENT_3D ( 'NONE', #55, #141, #101 ) ;
#202 = CARTESIAN_POINT ( 'NONE',  ( 2.000000000000000000, 2.449293598294706414E-16, 503.0000000000000000 ) ) ;
#203 = CARTESIAN_POINT ( 'NONE',  ( 0.000000000000000000, 0.000000000000000000, 0.000000000000000000 ) ) ;
#204 = DIRECTION ( 'NONE',  ( 0.000000000000000000, 0.000000000000000000, 1.000000000000000000 ) ) ;
#205 = CC_DESIGN_PERSON_AND_ORGANIZATION_ASSIGNMENT ( #301, #85, ( #77 ) ) ;
#206 = DIRECTION ( 'NONE',  ( 1.000000000000000000, 0.000000000000000000, -0.000000000000000000 ) ) ;
#207 = CARTESIAN_POINT ( 'NONE',  ( 2.000000000000000000, 2.449293598294706414E-16, 3.199999999999980638 ) ) ;
#208 = VECTOR ( 'NONE', #90, 1000.000000000000000 ) ;
#209 = CARTESIAN_POINT ( 'NONE',  ( 0.000000000000000000, 0.000000000000000000, 3.199999999999980638 ) ) ;
#210 = LOCAL_TIME ( 12, 9, 7.000000000000000000, #102 ) ;
#211 = PERSON_AND_ORGANIZATION ( #163, #8 ) ;
#212 = FACE_OUTER_BOUND ( 'NONE', #58, .T. ) ;
#213 = EDGE_CURVE ( 'NONE', #83, #21, #45, .T. ) ;
#214 = EDGE_CURVE ( 'NONE', #63, #127, #100, .T. ) ;
#215 = DIRECTION ( 'NONE',  ( -0.000000000000000000, -0.000000000000000000, -1.000000000000000000 ) ) ;
#216 = AXIS2_PLACEMENT_3D ( 'NONE', #166, #287, #116 ) ;
#217 = PERSON_AND_ORGANIZATION_ROLE ( 'creator' ) ;
#218 = CARTESIAN_POINT ( 'NONE',  ( 4.000000000000000000, 4.898587196589412829E-16, 3.000000000000000000 ) ) ;
#219 = AXIS2_PLACEMENT_3D ( 'NONE', #123, #12, #53 ) ;
#220 = EDGE_LOOP ( 'NONE', ( #60, #307 ) ) ;
#221 = ORIENTED_EDGE ( 'NONE', *, *, #213, .F. ) ;
#222 = APPROVAL ( #9, 'NEURÈENÝ' ) ;
#223 = APPROVAL_ROLE ( '' ) ;
#224 = ORIENTED_EDGE ( 'NONE', *, *, #161, .F. ) ;
#225 = ORIENTED_EDGE ( 'NONE', *, *, #48, .F. ) ;
#226 = AXIS2_PLACEMENT_3D ( 'NONE', #159, #228, #255 ) ;
#227 = CC_DESIGN_APPROVAL ( #64, ( #278 ) ) ;
#228 = DIRECTION ( 'NONE',  ( 0.000000000000000000, 0.000000000000000000, 1.000000000000000000 ) ) ;
#229 = DIRECTION ( 'NONE',  ( 0.000000000000000000, 0.000000000000000000, 1.000000000000000000 ) ) ;
#230 = PLANE ( 'NONE',  #108 ) ;
#231 = AXIS2_PLACEMENT_3D ( 'NONE', #157, #229, #52 ) ;
#232 = LOCAL_TIME ( 12, 9, 7.000000000000000000, #62 ) ;
#233 = CYLINDRICAL_SURFACE ( 'NONE', #178, 2.000000000000000000 ) ;
#234 = DIRECTION ( 'NONE',  ( 0.000000000000000000, 0.000000000000000000, 1.000000000000000000 ) ) ;
#235 = CIRCLE ( 'NONE', #19, 2.000000000000000000 ) ;
#236 = PERSON_AND_ORGANIZATION ( #163, #8 ) ;
#237 =( GEOMETRIC_REPRESENTATION_CONTEXT ( 3 ) GLOBAL_UNCERTAINTY_ASSIGNED_CONTEXT ( ( #82 ) ) GLOBAL_UNIT_ASSIGNED_CONTEXT ( ( #56, #79, #268 ) ) REPRESENTATION_CONTEXT ( 'NONE', 'WORKASPACE' ) );
#238 = MECHANICAL_CONTEXT ( 'NONE', #142, 'mechanical' ) ;
#239 = ADVANCED_FACE ( 'NONE', ( #259 ), #184, .T. ) ;
#240 = CARTESIAN_POINT ( 'NONE',  ( -2.000000000000000000, 0.000000000000000000, 503.0000000000000000 ) ) ;
#241 = AXIS2_PLACEMENT_3D ( 'NONE', #162, #234, #92 ) ;
#242 = EDGE_CURVE ( 'NONE', #83, #63, #10, .T. ) ;
#243 = DESIGN_CONTEXT ( 'detailed design', #269, 'design' ) ;
#244 = ORIENTED_EDGE ( 'NONE', *, *, #131, .F. ) ;
#245 = CIRCLE ( 'NONE', #114, 4.000000000000000000 ) ;
#246 = EDGE_LOOP ( 'NONE', ( #271, #156 ) ) ;
#247 = EDGE_CURVE ( 'NONE', #172, #274, #276, .T. ) ;
#248 = VERTEX_POINT ( 'NONE', #144 ) ;
#249 = CC_DESIGN_DATE_AND_TIME_ASSIGNMENT ( #252, #14, ( #278 ) ) ;
#250 = APPROVAL_DATE_TIME ( #174, #64 ) ;
#251 = ORIENTED_EDGE ( 'NONE', *, *, #48, .T. ) ;
#252 = DATE_AND_TIME ( #280, #295 ) ;
#253 = ORIENTED_EDGE ( 'NONE', *, *, #247, .F. ) ;
#254 = EDGE_CURVE ( 'NONE', #274, #148, #76, .T. ) ;
#255 = DIRECTION ( 'NONE',  ( 1.000000000000000000, 0.000000000000000000, 0.000000000000000000 ) ) ;
#256 = PRODUCT ( 'a9c2', 'a9c2', '', ( #238 ) ) ;
#257 = CC_DESIGN_APPROVAL ( #288, ( #77 ) ) ;
#258 = DIRECTION ( 'NONE',  ( -1.000000000000000000, 0.000000000000000000, 0.000000000000000000 ) ) ;
#259 = FACE_OUTER_BOUND ( 'NONE', #133, .T. ) ;
#260 = DIRECTION ( 'NONE',  ( -0.000000000000000000, -0.000000000000000000, -1.000000000000000000 ) ) ;
#261 = AXIS2_PLACEMENT_3D ( 'NONE', #140, #23, #91 ) ;
#262 = DIRECTION ( 'NONE',  ( 1.000000000000000000, 0.000000000000000000, -0.000000000000000000 ) ) ;
#263 = DIRECTION ( 'NONE',  ( -0.000000000000000000, -0.000000000000000000, -1.000000000000000000 ) ) ;
#264 = CALENDAR_DATE ( 2022, 20, 6 ) ;
#265 = DIRECTION ( 'NONE',  ( 1.000000000000000000, 0.000000000000000000, 0.000000000000000000 ) ) ;
#266 = CC_DESIGN_PERSON_AND_ORGANIZATION_ASSIGNMENT ( #39, #275, ( #168 ) ) ;
#267 = DIRECTION ( 'NONE',  ( -1.000000000000000000, 0.000000000000000000, 0.000000000000000000 ) ) ;
#268 =( NAMED_UNIT ( * ) SI_UNIT ( $, .STERADIAN. ) SOLID_ANGLE_UNIT ( ) );
#269 = APPLICATION_CONTEXT ( 'configuration controlled 3d designs of mechanical parts and assemblies' ) ;
#270 = CALENDAR_DATE ( 2022, 20, 6 ) ;
#271 = ORIENTED_EDGE ( 'NONE', *, *, #213, .T. ) ;
#272 = ADVANCED_BREP_SHAPE_REPRESENTATION ( 'a9c2', ( #103, #219 ), #237 ) ;
#273 = AXIS2_PLACEMENT_3D ( 'NONE', #289, #73, #262 ) ;
#274 = VERTEX_POINT ( 'NONE', #240 ) ;
#275 = PERSON_AND_ORGANIZATION_ROLE ( 'creator' ) ;
#276 = CIRCLE ( 'NONE', #165, 2.000000000000000000 ) ;
#277 = EDGE_LOOP ( 'NONE', ( #86, #84 ) ) ;
#278 = SECURITY_CLASSIFICATION ( '', '', #110 ) ;
#279 = ADVANCED_FACE ( 'NONE', ( #293 ), #128, .F. ) ;
#280 = CALENDAR_DATE ( 2022, 20, 6 ) ;
#281 = ORIENTED_EDGE ( 'NONE', *, *, #187, .F. ) ;
#282 = PLANE ( 'NONE',  #241 ) ;
#283 = CARTESIAN_POINT ( 'NONE',  ( 0.000000000000000000, 0.000000000000000000, 3.000000000000000000 ) ) ;
#284 = LOCAL_TIME ( 12, 9, 7.000000000000000000, #188 ) ;
#285 = CARTESIAN_POINT ( 'NONE',  ( 0.000000000000000000, 0.000000000000000000, 0.000000000000000000 ) ) ;
#286 = CIRCLE ( 'NONE', #37, 4.000000000000000000 ) ;
#287 = DIRECTION ( 'NONE',  ( 0.000000000000000000, 0.000000000000000000, 1.000000000000000000 ) ) ;
#288 = APPROVAL ( #124, 'NEURÈENÝ' ) ;
#289 = CARTESIAN_POINT ( 'NONE',  ( 0.000000000000000000, 0.000000000000000000, 3.000000000000000000 ) ) ;
#290 = EDGE_CURVE ( 'NONE', #194, #248, #51, .T. ) ;
#291 = VECTOR ( 'NONE', #297, 1000.000000000000000 ) ;
#292 = APPROVAL_PERSON_ORGANIZATION ( #192, #288, #223 ) ;
#293 = FACE_OUTER_BOUND ( 'NONE', #147, .T. ) ;
#294 = DIRECTION ( 'NONE',  ( 0.000000000000000000, 0.000000000000000000, 1.000000000000000000 ) ) ;
#295 = LOCAL_TIME ( 12, 9, 7.000000000000000000, #154 ) ;
#296 = DIRECTION ( 'NONE',  ( 0.000000000000000000, 0.000000000000000000, 1.000000000000000000 ) ) ;
#297 = DIRECTION ( 'NONE',  ( -0.000000000000000000, -0.000000000000000000, -1.000000000000000000 ) ) ;
#298 = CC_DESIGN_PERSON_AND_ORGANIZATION_ASSIGNMENT ( #236, #30, ( #256 ) ) ;
#299 = ADVANCED_FACE ( 'NONE', ( #212 ), #121, .T. ) ;
#300 = PRODUCT_DEFINITION_SHAPE ( 'NONE', 'NONE',  #168 ) ;
#301 = PERSON_AND_ORGANIZATION ( #163, #8 ) ;
#302 = DIRECTION ( 'NONE',  ( -1.000000000000000000, 1.224646799147353207E-16, 0.000000000000000000 ) ) ;
#303 = ORIENTED_EDGE ( 'NONE', *, *, #242, .T. ) ;
#304 = DATE_AND_TIME ( #270, #232 ) ;
#305 = ORIENTED_EDGE ( 'NONE', *, *, #2, .F. ) ;
#306 = TOROIDAL_SURFACE ( 'NONE', #226, 2.200000000000000178, 0.2000000000000000111 ) ;
#307 = ORIENTED_EDGE ( 'NONE', *, *, #290, .T. ) ;
ENDSEC;
END-ISO-10303-21;
