ISO-10303-21;
HEADER;
FILE_DESCRIPTION (( 'STEP AP203' ),
    '1' );
FILE_NAME ('de94.STEP',
    '2022-06-20T10:12:26',
    ( '' ),
    ( '' ),
    'SwSTEP 2.0',
    'SolidWorks 2019',
    '' );
FILE_SCHEMA (( 'CONFIG_CONTROL_DESIGN' ));
ENDSEC;

DATA;
#1 = CIRCLE ( 'NONE', #273, 0.1999999999999998723 ) ;
#2 = ORIENTED_EDGE ( 'NONE', *, *, #237, .F. ) ;
#3 = CC_DESIGN_DATE_AND_TIME_ASSIGNMENT ( #252, #209, ( #71 ) ) ;
#4 = APPROVAL_PERSON_ORGANIZATION ( #228, #154, #20 ) ;
#5 =( NAMED_UNIT ( * ) SI_UNIT ( $, .STERADIAN. ) SOLID_ANGLE_UNIT ( ) );
#6 = FACE_OUTER_BOUND ( 'NONE', #158, .T. ) ;
#7 = DIRECTION ( 'NONE',  ( -0.000000000000000000, -0.000000000000000000, -1.000000000000000000 ) ) ;
#8 = CARTESIAN_POINT ( 'NONE',  ( 0.000000000000000000, 0.000000000000000000, 3.000000000000000000 ) ) ;
#9 = DIRECTION ( 'NONE',  ( 1.000000000000000000, 0.000000000000000000, 0.000000000000000000 ) ) ;
#10 = ORIENTED_EDGE ( 'NONE', *, *, #196, .F. ) ;
#11 = CC_DESIGN_DATE_AND_TIME_ASSIGNMENT ( #37, #257, ( #88 ) ) ;
#12 = ORIENTED_EDGE ( 'NONE', *, *, #128, .F. ) ;
#13 = DIRECTION ( 'NONE',  ( -0.000000000000000000, -0.000000000000000000, -1.000000000000000000 ) ) ;
#14 = ORIENTED_EDGE ( 'NONE', *, *, #203, .F. ) ;
#15 = CIRCLE ( 'NONE', #269, 3.500000000000000444 ) ;
#16 = EDGE_CURVE ( 'NONE', #134, #62, #138, .T. ) ;
#17 = DATE_AND_TIME ( #144, #57 ) ;
#18 = FACE_BOUND ( 'NONE', #222, .T. ) ;
#19 = DIRECTION ( 'NONE',  ( -1.000000000000000000, 1.224646799147354686E-16, 0.000000000000000000 ) ) ;
#20 = APPROVAL_ROLE ( '' ) ;
#21 = CARTESIAN_POINT ( 'NONE',  ( 0.000000000000000000, 0.000000000000000000, 0.000000000000000000 ) ) ;
#22 = APPROVAL_STATUS ( 'not_yet_approved' ) ;
#23 = ADVANCED_FACE ( 'NONE', ( #6 ), #219, .T. ) ;
#24 = DIRECTION ( 'NONE',  ( 1.000000000000000000, 0.000000000000000000, 0.000000000000000000 ) ) ;
#25 = CARTESIAN_POINT ( 'NONE',  ( 0.000000000000000000, 0.000000000000000000, 128.0000000000000000 ) ) ;
#26 = PERSON_AND_ORGANIZATION ( #52, #45 ) ;
#27 = ORIENTED_EDGE ( 'NONE', *, *, #240, .T. ) ;
#28 = APPLICATION_PROTOCOL_DEFINITION ( 'international standard', 'config_control_design', 1994, #177 ) ;
#29 = ADVANCED_BREP_SHAPE_REPRESENTATION ( 'de94', ( #181, #264 ), #233 ) ;
#30 = EDGE_CURVE ( 'NONE', #295, #31, #87, .T. ) ;
#31 = VERTEX_POINT ( 'NONE', #121 ) ;
#32 = TOROIDAL_SURFACE ( 'NONE', #80, 1.950000000000000178, 0.2000000000000000111 ) ;
#33 = ORIENTED_EDGE ( 'NONE', *, *, #149, .F. ) ;
#34 = EDGE_LOOP ( 'NONE', ( #10, #173, #27, #55 ) ) ;
#35 = AXIS2_PLACEMENT_3D ( 'NONE', #213, #306, #24 ) ;
#36 = DIRECTION ( 'NONE',  ( 1.000000000000000000, 0.000000000000000000, 0.000000000000000000 ) ) ;
#37 = DATE_AND_TIME ( #214, #150 ) ;
#38 = TOROIDAL_SURFACE ( 'NONE', #198, 1.950000000000000178, 0.2000000000000000111 ) ;
#39 = CC_DESIGN_APPROVAL ( #154, ( #88 ) ) ;
#40 = DIRECTION ( 'NONE',  ( 1.224646799147353207E-16, 1.000000000000000000, -0.000000000000000000 ) ) ;
#41 = PERSON_AND_ORGANIZATION_ROLE ( 'creator' ) ;
#42 = CARTESIAN_POINT ( 'NONE',  ( 0.000000000000000000, 0.000000000000000000, 3.000000000000000000 ) ) ;
#43 = CALENDAR_DATE ( 2022, 20, 6 ) ;
#44 = DIRECTION ( 'NONE',  ( 1.000000000000000000, 0.000000000000000000, 0.000000000000000000 ) ) ;
#45 = ORGANIZATION ( 'NEURÈENÝ', 'NEURÈENÝ', '' ) ;
#46 = CARTESIAN_POINT ( 'NONE',  ( 0.000000000000000000, 0.000000000000000000, 128.0000000000000000 ) ) ;
#47 = EDGE_CURVE ( 'NONE', #192, #155, #166, .T. ) ;
#48 = PRODUCT_DEFINITION_SHAPE ( 'NONE', 'NONE',  #71 ) ;
#49 = AXIS2_PLACEMENT_3D ( 'NONE', #165, #117, #282 ) ;
#50 = CIRCLE ( 'NONE', #109, 1.950000000000000178 ) ;
#51 = UNCERTAINTY_MEASURE_WITH_UNIT (LENGTH_MEASURE( 1.000000000000000082E-05 ), #152, 'distance_accuracy_value', 'NONE');
#52 = PERSON ( 'NEURÈENÝ', 'NEURÈENÝ', 'NEURÈENÝ', ('NEURÈENÝ'), ('NEURÈENÝ'), ('NEURÈENÝ') ) ;
#53 = CARTESIAN_POINT ( 'NONE',  ( -3.500000000000000444, 0.000000000000000000, 3.000000000000000000 ) ) ;
#54 = CARTESIAN_POINT ( 'NONE',  ( 0.000000000000000000, 0.000000000000000000, 3.000000000000000000 ) ) ;
#55 = ORIENTED_EDGE ( 'NONE', *, *, #284, .F. ) ;
#56 = CIRCLE ( 'NONE', #135, 1.950000000000000178 ) ;
#57 = LOCAL_TIME ( 12, 12, 26.00000000000000000, #118 ) ;
#58 = DIRECTION ( 'NONE',  ( -1.000000000000000000, 0.000000000000000000, 0.000000000000000000 ) ) ;
#59 = ORIENTED_EDGE ( 'NONE', *, *, #185, .F. ) ;
#60 = VERTEX_POINT ( 'NONE', #74 ) ;
#61 = DIRECTION ( 'NONE',  ( -0.000000000000000000, -0.000000000000000000, -1.000000000000000000 ) ) ;
#62 = VERTEX_POINT ( 'NONE', #186 ) ;
#63 = DIRECTION ( 'NONE',  ( 1.000000000000000000, 0.000000000000000000, 0.000000000000000000 ) ) ;
#64 = EDGE_LOOP ( 'NONE', ( #104, #86 ) ) ;
#65 = APPROVAL_PERSON_ORGANIZATION ( #140, #234, #297 ) ;
#66 = PERSON_AND_ORGANIZATION ( #52, #45 ) ;
#67 = AXIS2_PLACEMENT_3D ( 'NONE', #21, #72, #100 ) ;
#68 = DIRECTION ( 'NONE',  ( 0.000000000000000000, 0.000000000000000000, 1.000000000000000000 ) ) ;
#69 = DATE_AND_TIME ( #161, #101 ) ;
#70 = AXIS2_PLACEMENT_3D ( 'NONE', #127, #291, #289 ) ;
#71 = PRODUCT_DEFINITION ( 'NEZNÁMÝ', '', #206, #168 ) ;
#72 = DIRECTION ( 'NONE',  ( 0.000000000000000000, 0.000000000000000000, 1.000000000000000000 ) ) ;
#73 = APPROVAL_DATE_TIME ( #69, #136 ) ;
#74 = CARTESIAN_POINT ( 'NONE',  ( 1.950000000000000178, 0.000000000000000000, 2.999999999999997335 ) ) ;
#75 = VECTOR ( 'NONE', #218, 1000.000000000000000 ) ;
#76 = PLANE ( 'NONE',  #49 ) ;
#77 = EDGE_CURVE ( 'NONE', #134, #295, #15, .T. ) ;
#78 = AXIS2_PLACEMENT_3D ( 'NONE', #184, #259, #235 ) ;
#79 = CC_DESIGN_SECURITY_CLASSIFICATION ( #88, ( #206 ) ) ;
#80 = AXIS2_PLACEMENT_3D ( 'NONE', #232, #160, #276 ) ;
#81 = CC_DESIGN_PERSON_AND_ORGANIZATION_ASSIGNMENT ( #120, #163, ( #206 ) ) ;
#82 = DIRECTION ( 'NONE',  ( 0.000000000000000000, -1.000000000000000000, 0.000000000000000000 ) ) ;
#83 = VERTEX_POINT ( 'NONE', #256 ) ;
#84 = ADVANCED_FACE ( 'NONE', ( #18, #187 ), #76, .T. ) ;
#85 = DIRECTION ( 'NONE',  ( 1.000000000000000000, 0.000000000000000000, 0.000000000000000000 ) ) ;
#86 = ORIENTED_EDGE ( 'NONE', *, *, #77, .T. ) ;
#87 = LINE ( 'NONE', #265, #250 ) ;
#88 = SECURITY_CLASSIFICATION ( '', '', #300 ) ;
#89 = CYLINDRICAL_SURFACE ( 'NONE', #159, 1.750000000000000000 ) ;
#90 = ORIENTED_EDGE ( 'NONE', *, *, #126, .F. ) ;
#91 = DIRECTION ( 'NONE',  ( -0.000000000000000000, -0.000000000000000000, -1.000000000000000000 ) ) ;
#92 = EDGE_LOOP ( 'NONE', ( #175, #292 ) ) ;
#93 = APPROVAL_DATE_TIME ( #17, #234 ) ;
#94 = PERSON_AND_ORGANIZATION_ROLE ( 'classification_officer' ) ;
#95 = APPROVAL_STATUS ( 'not_yet_approved' ) ;
#96 = CARTESIAN_POINT ( 'NONE',  ( -1.950000000000000178, 2.388061258337339136E-16, 3.199999999999994404 ) ) ;
#97 = APPLICATION_PROTOCOL_DEFINITION ( 'international standard', 'config_control_design', 1994, #239 ) ;
#98 = DIRECTION ( 'NONE',  ( 1.000000000000000000, 0.000000000000000000, 0.000000000000000000 ) ) ;
#99 = DIRECTION ( 'NONE',  ( 0.000000000000000000, 0.000000000000000000, 1.000000000000000000 ) ) ;
#100 = DIRECTION ( 'NONE',  ( 1.000000000000000000, 0.000000000000000000, -0.000000000000000000 ) ) ;
#101 = LOCAL_TIME ( 12, 12, 26.00000000000000000, #116 ) ;
#102 = MECHANICAL_CONTEXT ( 'NONE', #177, 'mechanical' ) ;
#103 = ADVANCED_FACE ( 'NONE', ( #210 ), #143, .T. ) ;
#104 = ORIENTED_EDGE ( 'NONE', *, *, #237, .T. ) ;
#105 = LINE ( 'NONE', #172, #115 ) ;
#106 = ORIENTED_EDGE ( 'NONE', *, *, #240, .F. ) ;
#107 = CYLINDRICAL_SURFACE ( 'NONE', #304, 3.500000000000000444 ) ;
#108 = ORIENTED_EDGE ( 'NONE', *, *, #128, .T. ) ;
#109 = AXIS2_PLACEMENT_3D ( 'NONE', #119, #303, #162 ) ;
#110 = DIRECTION ( 'NONE',  ( -0.000000000000000000, -0.000000000000000000, -1.000000000000000000 ) ) ;
#111 = EDGE_LOOP ( 'NONE', ( #262, #131, #288, #242 ) ) ;
#112 = DIRECTION ( 'NONE',  ( 1.000000000000000000, 0.000000000000000000, 0.000000000000000000 ) ) ;
#113 = CC_DESIGN_PERSON_AND_ORGANIZATION_ASSIGNMENT ( #205, #94, ( #88 ) ) ;
#114 = ORIENTED_EDGE ( 'NONE', *, *, #47, .T. ) ;
#115 = VECTOR ( 'NONE', #7, 1000.000000000000000 ) ;
#116 = COORDINATED_UNIVERSAL_TIME_OFFSET ( 1, 0, .AHEAD. ) ;
#117 = DIRECTION ( 'NONE',  ( 0.000000000000000000, 0.000000000000000000, 1.000000000000000000 ) ) ;
#118 = COORDINATED_UNIVERSAL_TIME_OFFSET ( 1, 0, .AHEAD. ) ;
#119 = CARTESIAN_POINT ( 'NONE',  ( 0.000000000000000000, 0.000000000000000000, 3.000000000000000000 ) ) ;
#120 = PERSON_AND_ORGANIZATION ( #52, #45 ) ;
#121 = CARTESIAN_POINT ( 'NONE',  ( -3.500000000000000444, 0.000000000000000000, 0.000000000000000000 ) ) ;
#122 = COORDINATED_UNIVERSAL_TIME_OFFSET ( 1, 0, .AHEAD. ) ;
#123 = CIRCLE ( 'NONE', #70, 1.750000000000000000 ) ;
#124 = CARTESIAN_POINT ( 'NONE',  ( -1.950000000000000178, 2.388061258337339136E-16, 2.999999999999997335 ) ) ;
#125 = PRODUCT ( 'de94', 'de94', '', ( #102 ) ) ;
#126 = EDGE_CURVE ( 'NONE', #31, #62, #188, .T. ) ;
#127 = CARTESIAN_POINT ( 'NONE',  ( 0.000000000000000000, 0.000000000000000000, 128.0000000000000000 ) ) ;
#128 = EDGE_CURVE ( 'NONE', #155, #192, #236, .T. ) ;
#129 = DIRECTION ( 'NONE',  ( 0.000000000000000000, 0.000000000000000000, 1.000000000000000000 ) ) ;
#130 = ORIENTED_EDGE ( 'NONE', *, *, #294, .F. ) ;
#131 = ORIENTED_EDGE ( 'NONE', *, *, #16, .T. ) ;
#132 = CIRCLE ( 'NONE', #302, 3.500000000000000444 ) ;
#133 = FACE_OUTER_BOUND ( 'NONE', #153, .T. ) ;
#134 = VERTEX_POINT ( 'NONE', #182 ) ;
#135 = AXIS2_PLACEMENT_3D ( 'NONE', #266, #91, #9 ) ;
#136 = APPROVAL ( #231, 'NEURÈENÝ' ) ;
#137 = PERSON_AND_ORGANIZATION_ROLE ( 'design_owner' ) ;
#138 = LINE ( 'NONE', #224, #75 ) ;
#139 = DIRECTION ( 'NONE',  ( 0.000000000000000000, 0.000000000000000000, 1.000000000000000000 ) ) ;
#140 = PERSON_AND_ORGANIZATION ( #52, #45 ) ;
#141 = DIRECTION ( 'NONE',  ( 1.000000000000000000, 0.000000000000000000, -0.000000000000000000 ) ) ;
#142 = COORDINATED_UNIVERSAL_TIME_OFFSET ( 1, 0, .AHEAD. ) ;
#143 = PLANE ( 'NONE',  #211 ) ;
#144 = CALENDAR_DATE ( 2022, 20, 6 ) ;
#145 = FACE_OUTER_BOUND ( 'NONE', #157, .T. ) ;
#146 = CIRCLE ( 'NONE', #180, 0.2000000000000000944 ) ;
#147 = CC_DESIGN_APPROVAL ( #136, ( #206 ) ) ;
#148 = CARTESIAN_POINT ( 'NONE',  ( 0.000000000000000000, 0.000000000000000000, 3.199999999999994404 ) ) ;
#149 = EDGE_CURVE ( 'NONE', #62, #31, #132, .T. ) ;
#150 = LOCAL_TIME ( 12, 12, 26.00000000000000000, #142 ) ;
#151 = ORIENTED_EDGE ( 'NONE', *, *, #260, .F. ) ;
#152 =( LENGTH_UNIT ( ) NAMED_UNIT ( * ) SI_UNIT ( .MILLI., .METRE. ) );
#153 = EDGE_LOOP ( 'NONE', ( #130, #151, #247, #108 ) ) ;
#154 = APPROVAL ( #95, 'NEURÈENÝ' ) ;
#155 = VERTEX_POINT ( 'NONE', #208 ) ;
#156 = LINE ( 'NONE', #200, #263 ) ;
#157 = EDGE_LOOP ( 'NONE', ( #12, #267, #14, #106 ) ) ;
#158 = EDGE_LOOP ( 'NONE', ( #271, #2, #241, #178 ) ) ;
#159 = AXIS2_PLACEMENT_3D ( 'NONE', #191, #13, #217 ) ;
#160 = DIRECTION ( 'NONE',  ( 0.000000000000000000, 0.000000000000000000, 1.000000000000000000 ) ) ;
#161 = CALENDAR_DATE ( 2022, 20, 6 ) ;
#162 = DIRECTION ( 'NONE',  ( 1.000000000000000000, 0.000000000000000000, 0.000000000000000000 ) ) ;
#163 = PERSON_AND_ORGANIZATION_ROLE ( 'creator' ) ;
#164 = ADVANCED_FACE ( 'NONE', ( #145 ), #32, .F. ) ;
#165 = CARTESIAN_POINT ( 'NONE',  ( 0.000000000000000000, 0.000000000000000000, 3.000000000000000000 ) ) ;
#166 = CIRCLE ( 'NONE', #35, 1.750000000000000000 ) ;
#167 = DIRECTION ( 'NONE',  ( 0.000000000000000000, 0.000000000000000000, 1.000000000000000000 ) ) ;
#168 = DESIGN_CONTEXT ( 'detailed design', #239, 'design' ) ;
#169 = DIRECTION ( 'NONE',  ( -1.000000000000000000, 0.000000000000000000, 0.000000000000000000 ) ) ;
#170 = CARTESIAN_POINT ( 'NONE',  ( 0.000000000000000000, 0.000000000000000000, 3.199999999999994404 ) ) ;
#171 = VERTEX_POINT ( 'NONE', #124 ) ;
#172 = CARTESIAN_POINT ( 'NONE',  ( -1.750000000000000000, 0.000000000000000000, 128.0000000000000000 ) ) ;
#173 = ORIENTED_EDGE ( 'NONE', *, *, #47, .F. ) ;
#174 = ADVANCED_FACE ( 'NONE', ( #227 ), #307, .F. ) ;
#175 = ORIENTED_EDGE ( 'NONE', *, *, #260, .T. ) ;
#176 = CARTESIAN_POINT ( 'NONE',  ( 0.000000000000000000, 0.000000000000000000, 0.000000000000000000 ) ) ;
#177 = APPLICATION_CONTEXT ( 'configuration controlled 3d designs of mechanical parts and assemblies' ) ;
#178 = ORIENTED_EDGE ( 'NONE', *, *, #126, .T. ) ;
#179 = APPROVAL_DATE_TIME ( #183, #154 ) ;
#180 = AXIS2_PLACEMENT_3D ( 'NONE', #202, #82, #197 ) ;
#181 = MANIFOLD_SOLID_BREP ( 'Zaoblit1', #230 ) ;
#182 = CARTESIAN_POINT ( 'NONE',  ( 3.500000000000000444, 4.286263797015737088E-16, 3.000000000000000000 ) ) ;
#183 = DATE_AND_TIME ( #43, #279 ) ;
#184 = CARTESIAN_POINT ( 'NONE',  ( 0.000000000000000000, 0.000000000000000000, 128.0000000000000000 ) ) ;
#185 = EDGE_CURVE ( 'NONE', #189, #83, #245, .T. ) ;
#186 = CARTESIAN_POINT ( 'NONE',  ( 3.500000000000000444, 4.286263797015737088E-16, 0.000000000000000000 ) ) ;
#187 = FACE_OUTER_BOUND ( 'NONE', #64, .T. ) ;
#188 = CIRCLE ( 'NONE', #194, 3.500000000000000444 ) ;
#189 = VERTEX_POINT ( 'NONE', #251 ) ;
#190 = CC_DESIGN_PERSON_AND_ORGANIZATION_ASSIGNMENT ( #255, #41, ( #71 ) ) ;
#191 = CARTESIAN_POINT ( 'NONE',  ( 0.000000000000000000, 0.000000000000000000, 128.0000000000000000 ) ) ;
#192 = VERTEX_POINT ( 'NONE', #301 ) ;
#193 = FACE_OUTER_BOUND ( 'NONE', #34, .T. ) ;
#194 = AXIS2_PLACEMENT_3D ( 'NONE', #254, #68, #280 ) ;
#195 = DIRECTION ( 'NONE',  ( -0.000000000000000000, -0.000000000000000000, -1.000000000000000000 ) ) ;
#196 = EDGE_CURVE ( 'NONE', #155, #171, #1, .T. ) ;
#197 = DIRECTION ( 'NONE',  ( 0.000000000000000000, 0.000000000000000000, -1.000000000000000000 ) ) ;
#198 = AXIS2_PLACEMENT_3D ( 'NONE', #170, #129, #85 ) ;
#199 = ORIENTED_EDGE ( 'NONE', *, *, #294, .T. ) ;
#200 = CARTESIAN_POINT ( 'NONE',  ( 1.750000000000000000, 2.143131898507868297E-16, 128.0000000000000000 ) ) ;
#201 = EDGE_LOOP ( 'NONE', ( #90, #33 ) ) ;
#202 = CARTESIAN_POINT ( 'NONE',  ( 1.950000000000000178, 0.000000000000000000, 3.199999999999994404 ) ) ;
#203 = EDGE_CURVE ( 'NONE', #60, #171, #50, .T. ) ;
#204 = ORIENTED_EDGE ( 'NONE', *, *, #203, .T. ) ;
#205 = PERSON_AND_ORGANIZATION ( #52, #45 ) ;
#206 = PRODUCT_DEFINITION_FORMATION_WITH_SPECIFIED_SOURCE ( 'LIBOVOLNÝ', '', #125, .NOT_KNOWN. ) ;
#207 = PERSON_AND_ORGANIZATION ( #52, #45 ) ;
#208 = CARTESIAN_POINT ( 'NONE',  ( -1.750000000000000000, 0.000000000000000000, 3.199999999999994404 ) ) ;
#209 = DATE_TIME_ROLE ( 'creation_date' ) ;
#210 = FACE_OUTER_BOUND ( 'NONE', #92, .T. ) ;
#211 = AXIS2_PLACEMENT_3D ( 'NONE', #46, #139, #141 ) ;
#212 = CC_DESIGN_PERSON_AND_ORGANIZATION_ASSIGNMENT ( #207, #272, ( #206 ) ) ;
#213 = CARTESIAN_POINT ( 'NONE',  ( 0.000000000000000000, 0.000000000000000000, 3.199999999999994404 ) ) ;
#214 = CALENDAR_DATE ( 2022, 20, 6 ) ;
#215 = CARTESIAN_POINT ( 'NONE',  ( 0.000000000000000000, 0.000000000000000000, 0.000000000000000000 ) ) ;
#216 = ADVANCED_FACE ( 'NONE', ( #229 ), #89, .T. ) ;
#217 = DIRECTION ( 'NONE',  ( -1.000000000000000000, 0.000000000000000000, 0.000000000000000000 ) ) ;
#218 = DIRECTION ( 'NONE',  ( -0.000000000000000000, -0.000000000000000000, -1.000000000000000000 ) ) ;
#219 = CYLINDRICAL_SURFACE ( 'NONE', #285, 3.500000000000000444 ) ;
#220 = AXIS2_PLACEMENT_3D ( 'NONE', #148, #258, #44 ) ;
#221 = EDGE_LOOP ( 'NONE', ( #59, #199, #114, #244 ) ) ;
#222 = EDGE_LOOP ( 'NONE', ( #204, #287 ) ) ;
#223 = CARTESIAN_POINT ( 'NONE',  ( 0.000000000000000000, 0.000000000000000000, 3.000000000000000000 ) ) ;
#224 = CARTESIAN_POINT ( 'NONE',  ( 3.500000000000000444, 4.286263797015737088E-16, 3.000000000000000000 ) ) ;
#225 = SHAPE_DEFINITION_REPRESENTATION ( #48, #29 ) ;
#226 = CC_DESIGN_PERSON_AND_ORGANIZATION_ASSIGNMENT ( #26, #137, ( #125 ) ) ;
#227 = FACE_OUTER_BOUND ( 'NONE', #201, .T. ) ;
#228 = PERSON_AND_ORGANIZATION ( #52, #45 ) ;
#229 = FACE_OUTER_BOUND ( 'NONE', #221, .T. ) ;
#230 = CLOSED_SHELL ( 'NONE', ( #164, #216, #299, #23, #84, #174, #253, #103, #248 ) ) ;
#231 = APPROVAL_STATUS ( 'not_yet_approved' ) ;
#232 = CARTESIAN_POINT ( 'NONE',  ( 0.000000000000000000, 0.000000000000000000, 3.199999999999994404 ) ) ;
#233 =( GEOMETRIC_REPRESENTATION_CONTEXT ( 3 ) GLOBAL_UNCERTAINTY_ASSIGNED_CONTEXT ( ( #51 ) ) GLOBAL_UNIT_ASSIGNED_CONTEXT ( ( #152, #243, #5 ) ) REPRESENTATION_CONTEXT ( 'NONE', 'WORKASPACE' ) );
#234 = APPROVAL ( #22, 'NEURÈENÝ' ) ;
#235 = DIRECTION ( 'NONE',  ( 1.000000000000000000, 0.000000000000000000, 0.000000000000000000 ) ) ;
#236 = CIRCLE ( 'NONE', #220, 1.750000000000000000 ) ;
#237 = EDGE_CURVE ( 'NONE', #295, #134, #298, .T. ) ;
#238 = CYLINDRICAL_SURFACE ( 'NONE', #283, 1.750000000000000000 ) ;
#239 = APPLICATION_CONTEXT ( 'configuration controlled 3d designs of mechanical parts and assemblies' ) ;
#240 = EDGE_CURVE ( 'NONE', #192, #60, #146, .T. ) ;
#241 = ORIENTED_EDGE ( 'NONE', *, *, #30, .T. ) ;
#242 = ORIENTED_EDGE ( 'NONE', *, *, #30, .F. ) ;
#243 =( NAMED_UNIT ( * ) PLANE_ANGLE_UNIT ( ) SI_UNIT ( $, .RADIAN. ) );
#244 = ORIENTED_EDGE ( 'NONE', *, *, #270, .F. ) ;
#245 = CIRCLE ( 'NONE', #78, 1.750000000000000000 ) ;
#246 = APPROVAL_PERSON_ORGANIZATION ( #66, #136, #249 ) ;
#247 = ORIENTED_EDGE ( 'NONE', *, *, #270, .T. ) ;
#248 = ADVANCED_FACE ( 'NONE', ( #193 ), #38, .F. ) ;
#249 = APPROVAL_ROLE ( '' ) ;
#250 = VECTOR ( 'NONE', #281, 1000.000000000000000 ) ;
#251 = CARTESIAN_POINT ( 'NONE',  ( 1.750000000000000000, 2.143131898507868297E-16, 128.0000000000000000 ) ) ;
#252 = DATE_AND_TIME ( #277, #274 ) ;
#253 = ADVANCED_FACE ( 'NONE', ( #133 ), #238, .T. ) ;
#254 = CARTESIAN_POINT ( 'NONE',  ( 0.000000000000000000, 0.000000000000000000, 0.000000000000000000 ) ) ;
#255 = PERSON_AND_ORGANIZATION ( #52, #45 ) ;
#256 = CARTESIAN_POINT ( 'NONE',  ( -1.750000000000000000, 0.000000000000000000, 128.0000000000000000 ) ) ;
#257 = DATE_TIME_ROLE ( 'classification_date' ) ;
#258 = DIRECTION ( 'NONE',  ( 0.000000000000000000, 0.000000000000000000, 1.000000000000000000 ) ) ;
#259 = DIRECTION ( 'NONE',  ( 0.000000000000000000, 0.000000000000000000, 1.000000000000000000 ) ) ;
#260 = EDGE_CURVE ( 'NONE', #83, #189, #123, .T. ) ;
#261 = FACE_OUTER_BOUND ( 'NONE', #111, .T. ) ;
#262 = ORIENTED_EDGE ( 'NONE', *, *, #77, .F. ) ;
#263 = VECTOR ( 'NONE', #110, 1000.000000000000000 ) ;
#264 = AXIS2_PLACEMENT_3D ( 'NONE', #176, #268, #63 ) ;
#265 = CARTESIAN_POINT ( 'NONE',  ( -3.500000000000000444, 0.000000000000000000, 3.000000000000000000 ) ) ;
#266 = CARTESIAN_POINT ( 'NONE',  ( 0.000000000000000000, 0.000000000000000000, 3.000000000000000000 ) ) ;
#267 = ORIENTED_EDGE ( 'NONE', *, *, #196, .T. ) ;
#268 = DIRECTION ( 'NONE',  ( 0.000000000000000000, 0.000000000000000000, 1.000000000000000000 ) ) ;
#269 = AXIS2_PLACEMENT_3D ( 'NONE', #42, #99, #36 ) ;
#270 = EDGE_CURVE ( 'NONE', #83, #155, #105, .T. ) ;
#271 = ORIENTED_EDGE ( 'NONE', *, *, #16, .F. ) ;
#272 = PERSON_AND_ORGANIZATION_ROLE ( 'design_supplier' ) ;
#273 = AXIS2_PLACEMENT_3D ( 'NONE', #96, #40, #19 ) ;
#274 = LOCAL_TIME ( 12, 12, 26.00000000000000000, #122 ) ;
#275 = COORDINATED_UNIVERSAL_TIME_OFFSET ( 1, 0, .AHEAD. ) ;
#276 = DIRECTION ( 'NONE',  ( 1.000000000000000000, 0.000000000000000000, 0.000000000000000000 ) ) ;
#277 = CALENDAR_DATE ( 2022, 20, 6 ) ;
#278 = AXIS2_PLACEMENT_3D ( 'NONE', #223, #293, #112 ) ;
#279 = LOCAL_TIME ( 12, 12, 26.00000000000000000, #275 ) ;
#280 = DIRECTION ( 'NONE',  ( 1.000000000000000000, 0.000000000000000000, 0.000000000000000000 ) ) ;
#281 = DIRECTION ( 'NONE',  ( -0.000000000000000000, -0.000000000000000000, -1.000000000000000000 ) ) ;
#282 = DIRECTION ( 'NONE',  ( 1.000000000000000000, 0.000000000000000000, -0.000000000000000000 ) ) ;
#283 = AXIS2_PLACEMENT_3D ( 'NONE', #25, #296, #58 ) ;
#284 = EDGE_CURVE ( 'NONE', #171, #60, #56, .T. ) ;
#285 = AXIS2_PLACEMENT_3D ( 'NONE', #8, #195, #290 ) ;
#286 = PRODUCT_RELATED_PRODUCT_CATEGORY ( 'detail', '', ( #125 ) ) ;
#287 = ORIENTED_EDGE ( 'NONE', *, *, #284, .T. ) ;
#288 = ORIENTED_EDGE ( 'NONE', *, *, #149, .T. ) ;
#289 = DIRECTION ( 'NONE',  ( 1.000000000000000000, 0.000000000000000000, 0.000000000000000000 ) ) ;
#290 = DIRECTION ( 'NONE',  ( -1.000000000000000000, 0.000000000000000000, 0.000000000000000000 ) ) ;
#291 = DIRECTION ( 'NONE',  ( 0.000000000000000000, 0.000000000000000000, 1.000000000000000000 ) ) ;
#292 = ORIENTED_EDGE ( 'NONE', *, *, #185, .T. ) ;
#293 = DIRECTION ( 'NONE',  ( 0.000000000000000000, 0.000000000000000000, 1.000000000000000000 ) ) ;
#294 = EDGE_CURVE ( 'NONE', #189, #192, #156, .T. ) ;
#295 = VERTEX_POINT ( 'NONE', #53 ) ;
#296 = DIRECTION ( 'NONE',  ( -0.000000000000000000, -0.000000000000000000, -1.000000000000000000 ) ) ;
#297 = APPROVAL_ROLE ( '' ) ;
#298 = CIRCLE ( 'NONE', #278, 3.500000000000000444 ) ;
#299 = ADVANCED_FACE ( 'NONE', ( #261 ), #107, .T. ) ;
#300 = SECURITY_CLASSIFICATION_LEVEL ( 'unclassified' ) ;
#301 = CARTESIAN_POINT ( 'NONE',  ( 1.750000000000000000, 2.143131898507868297E-16, 3.199999999999994404 ) ) ;
#302 = AXIS2_PLACEMENT_3D ( 'NONE', #215, #167, #98 ) ;
#303 = DIRECTION ( 'NONE',  ( -0.000000000000000000, -0.000000000000000000, -1.000000000000000000 ) ) ;
#304 = AXIS2_PLACEMENT_3D ( 'NONE', #54, #61, #169 ) ;
#305 = CC_DESIGN_APPROVAL ( #234, ( #71 ) ) ;
#306 = DIRECTION ( 'NONE',  ( 0.000000000000000000, 0.000000000000000000, 1.000000000000000000 ) ) ;
#307 = PLANE ( 'NONE',  #67 ) ;
ENDSEC;
END-ISO-10303-21;
