ISO-10303-21;
HEADER;
FILE_DESCRIPTION (( 'STEP AP203' ),
    '1' );
FILE_NAME ('e769.STEP',
    '2022-06-20T10:26:14',
    ( '' ),
    ( '' ),
    'SwSTEP 2.0',
    'SolidWorks 2019',
    '' );
FILE_SCHEMA (( 'CONFIG_CONTROL_DESIGN' ));
ENDSEC;

DATA;
#1 = ORIENTED_EDGE ( 'NONE', *, *, #18, .F. ) ;
#2 = ADVANCED_FACE ( 'NONE', ( #258 ), #31, .T. ) ;
#3 = AXIS2_PLACEMENT_3D ( 'NONE', #143, #65, #129 ) ;
#4 = ORIENTED_EDGE ( 'NONE', *, *, #53, .F. ) ;
#5 = ADVANCED_FACE ( 'NONE', ( #170 ), #260, .T. ) ;
#6 = ORIENTED_EDGE ( 'NONE', *, *, #7, .F. ) ;
#7 = EDGE_CURVE ( 'NONE', #60, #190, #12, .T. ) ;
#8 = ADVANCED_FACE ( 'NONE', ( #89 ), #95, .F. ) ;
#9 = DIRECTION ( 'NONE',  ( 0.000000000000000000, 0.000000000000000000, 1.000000000000000000 ) ) ;
#10 = CARTESIAN_POINT ( 'NONE',  ( 0.000000000000000000, 0.000000000000000000, 1.199999999999999956 ) ) ;
#11 = PLANE ( 'NONE',  #78 ) ;
#12 = LINE ( 'NONE', #133, #223 ) ;
#13 = EDGE_CURVE ( 'NONE', #288, #234, #259, .T. ) ;
#14 = CARTESIAN_POINT ( 'NONE',  ( -0.5000000000000000000, 0.000000000000000000, 1.399999999999998579 ) ) ;
#15 = AXIS2_PLACEMENT_3D ( 'NONE', #114, #135, #291 ) ;
#16 = CARTESIAN_POINT ( 'NONE',  ( 0.000000000000000000, 0.000000000000000000, 1.399999999999998579 ) ) ;
#17 = PLANE ( 'NONE',  #15 ) ;
#18 = EDGE_CURVE ( 'NONE', #141, #190, #131, .T. ) ;
#19 = COORDINATED_UNIVERSAL_TIME_OFFSET ( 1, 0, .AHEAD. ) ;
#20 = DIRECTION ( 'NONE',  ( 1.000000000000000000, 0.000000000000000000, 0.000000000000000000 ) ) ;
#21 = CARTESIAN_POINT ( 'NONE',  ( 0.000000000000000000, 0.000000000000000000, 101.2000000000000171 ) ) ;
#22 = DIRECTION ( 'NONE',  ( 1.000000000000000000, 0.000000000000000000, 0.000000000000000000 ) ) ;
#23 = DIRECTION ( 'NONE',  ( -0.000000000000000000, -0.000000000000000000, -1.000000000000000000 ) ) ;
#24 = DIRECTION ( 'NONE',  ( -0.000000000000000000, -0.000000000000000000, -1.000000000000000000 ) ) ;
#25 = AXIS2_PLACEMENT_3D ( 'NONE', #130, #200, #72 ) ;
#26 = AXIS2_PLACEMENT_3D ( 'NONE', #21, #69, #86 ) ;
#27 = PRODUCT ( 'e769', 'e769', '', ( #179 ) ) ;
#28 = APPLICATION_PROTOCOL_DEFINITION ( 'international standard', 'config_control_design', 1994, #90 ) ;
#29 = EDGE_CURVE ( 'NONE', #83, #194, #277, .T. ) ;
#30 = ORIENTED_EDGE ( 'NONE', *, *, #7, .T. ) ;
#31 = CYLINDRICAL_SURFACE ( 'NONE', #91, 0.5000000000000000000 ) ;
#32 = AXIS2_PLACEMENT_3D ( 'NONE', #202, #136, #230 ) ;
#33 = PRODUCT_DEFINITION ( 'NEZNÁMÝ', '', #237, #168 ) ;
#34 = DIRECTION ( 'NONE',  ( -1.000000000000000000, 0.000000000000000000, 0.000000000000000000 ) ) ;
#35 = VERTEX_POINT ( 'NONE', #201 ) ;
#36 = APPROVAL ( #251, 'NEURÈENÝ' ) ;
#37 = DIRECTION ( 'NONE',  ( 0.000000000000000000, 0.000000000000000000, 1.000000000000000000 ) ) ;
#38 = FACE_OUTER_BOUND ( 'NONE', #306, .T. ) ;
#39 = LINE ( 'NONE', #224, #140 ) ;
#40 = ADVANCED_FACE ( 'NONE', ( #241 ), #255, .F. ) ;
#41 =( NAMED_UNIT ( * ) SI_UNIT ( $, .STERADIAN. ) SOLID_ANGLE_UNIT ( ) );
#42 =( NAMED_UNIT ( * ) PLANE_ANGLE_UNIT ( ) SI_UNIT ( $, .RADIAN. ) );
#43 = DIRECTION ( 'NONE',  ( 0.000000000000000000, 0.000000000000000000, 1.000000000000000000 ) ) ;
#44 = CARTESIAN_POINT ( 'NONE',  ( 0.6999999999999999556, 0.000000000000000000, 1.399999999999998579 ) ) ;
#45 = APPROVAL_DATE_TIME ( #96, #36 ) ;
#46 = DIRECTION ( 'NONE',  ( 1.000000000000000000, 0.000000000000000000, 0.000000000000000000 ) ) ;
#47 = CARTESIAN_POINT ( 'NONE',  ( -1.250000000000000000, 0.000000000000000000, 0.000000000000000000 ) ) ;
#48 = CALENDAR_DATE ( 2022, 20, 6 ) ;
#49 = CALENDAR_DATE ( 2022, 20, 6 ) ;
#50 = CARTESIAN_POINT ( 'NONE',  ( 0.000000000000000000, 0.000000000000000000, 101.2000000000000171 ) ) ;
#51 = CIRCLE ( 'NONE', #167, 0.6999999999999999556 ) ;
#52 = AXIS2_PLACEMENT_3D ( 'NONE', #246, #9, #148 ) ;
#53 = EDGE_CURVE ( 'NONE', #83, #35, #85, .T. ) ;
#54 = ORIENTED_EDGE ( 'NONE', *, *, #13, .F. ) ;
#55 = AXIS2_PLACEMENT_3D ( 'NONE', #112, #297, #182 ) ;
#56 = EDGE_LOOP ( 'NONE', ( #214, #239 ) ) ;
#57 = CIRCLE ( 'NONE', #215, 1.250000000000000000 ) ;
#58 = ORIENTED_EDGE ( 'NONE', *, *, #128, .F. ) ;
#59 = DIRECTION ( 'NONE',  ( 0.000000000000000000, 0.000000000000000000, 1.000000000000000000 ) ) ;
#60 = VERTEX_POINT ( 'NONE', #134 ) ;
#61 = DIRECTION ( 'NONE',  ( 1.000000000000000000, 0.000000000000000000, 0.000000000000000000 ) ) ;
#62 = LOCAL_TIME ( 12, 26, 14.00000000000000000, #109 ) ;
#63 = DIRECTION ( 'NONE',  ( 1.000000000000000000, 0.000000000000000000, 0.000000000000000000 ) ) ;
#64 = DIRECTION ( 'NONE',  ( -1.000000000000000000, 0.000000000000000000, 0.000000000000000000 ) ) ;
#65 = DIRECTION ( 'NONE',  ( -0.000000000000000000, -0.000000000000000000, -1.000000000000000000 ) ) ;
#66 =( LENGTH_UNIT ( ) NAMED_UNIT ( * ) SI_UNIT ( .MILLI., .METRE. ) );
#67 = CC_DESIGN_PERSON_AND_ORGANIZATION_ASSIGNMENT ( #231, #138, ( #262 ) ) ;
#68 = COORDINATED_UNIVERSAL_TIME_OFFSET ( 1, 0, .AHEAD. ) ;
#69 = DIRECTION ( 'NONE',  ( 0.000000000000000000, 0.000000000000000000, 1.000000000000000000 ) ) ;
#70 = DIRECTION ( 'NONE',  ( 0.000000000000000000, 0.000000000000000000, 1.000000000000000000 ) ) ;
#71 = COORDINATED_UNIVERSAL_TIME_OFFSET ( 1, 0, .AHEAD. ) ;
#72 = DIRECTION ( 'NONE',  ( 1.000000000000000000, 0.000000000000000000, 0.000000000000000000 ) ) ;
#73 = CALENDAR_DATE ( 2022, 20, 6 ) ;
#74 = CARTESIAN_POINT ( 'NONE',  ( 0.000000000000000000, 0.000000000000000000, 1.199999999999999956 ) ) ;
#75 = ADVANCED_FACE ( 'NONE', ( #150 ), #228, .T. ) ;
#76 = CARTESIAN_POINT ( 'NONE',  ( 0.000000000000000000, 0.000000000000000000, 0.000000000000000000 ) ) ;
#77 = LOCAL_TIME ( 12, 26, 14.00000000000000000, #19 ) ;
#78 = AXIS2_PLACEMENT_3D ( 'NONE', #88, #155, #173 ) ;
#79 = ADVANCED_FACE ( 'NONE', ( #163 ), #254, .T. ) ;
#80 = EDGE_LOOP ( 'NONE', ( #191, #104 ) ) ;
#81 = APPROVAL ( #232, 'NEURÈENÝ' ) ;
#82 = DIRECTION ( 'NONE',  ( -0.000000000000000000, -0.000000000000000000, -1.000000000000000000 ) ) ;
#83 = VERTEX_POINT ( 'NONE', #248 ) ;
#84 = VERTEX_POINT ( 'NONE', #272 ) ;
#85 = CIRCLE ( 'NONE', #243, 1.250000000000000000 ) ;
#86 = DIRECTION ( 'NONE',  ( 1.000000000000000000, 0.000000000000000000, 0.000000000000000000 ) ) ;
#87 = CIRCLE ( 'NONE', #144, 0.2000000000000000944 ) ;
#88 = CARTESIAN_POINT ( 'NONE',  ( 0.000000000000000000, 0.000000000000000000, 0.000000000000000000 ) ) ;
#89 = FACE_OUTER_BOUND ( 'NONE', #286, .T. ) ;
#90 = APPLICATION_CONTEXT ( 'configuration controlled 3d designs of mechanical parts and assemblies' ) ;
#91 = AXIS2_PLACEMENT_3D ( 'NONE', #121, #82, #34 ) ;
#92 = CARTESIAN_POINT ( 'NONE',  ( 0.000000000000000000, 0.000000000000000000, 1.399999999999998579 ) ) ;
#93 = CC_DESIGN_PERSON_AND_ORGANIZATION_ASSIGNMENT ( #209, #111, ( #33 ) ) ;
#94 = PERSON_AND_ORGANIZATION ( #188, #117 ) ;
#95 = TOROIDAL_SURFACE ( 'NONE', #52, 0.6999999999999999556, 0.2000000000000000111 ) ;
#96 = DATE_AND_TIME ( #48, #62 ) ;
#97 = EDGE_CURVE ( 'NONE', #194, #84, #307, .T. ) ;
#98 = AXIS2_PLACEMENT_3D ( 'NONE', #76, #187, #22 ) ;
#99 = ORIENTED_EDGE ( 'NONE', *, *, #128, .T. ) ;
#100 = AXIS2_PLACEMENT_3D ( 'NONE', #151, #268, #293 ) ;
#101 = ORIENTED_EDGE ( 'NONE', *, *, #126, .F. ) ;
#102 = ORIENTED_EDGE ( 'NONE', *, *, #195, .F. ) ;
#103 = ORIENTED_EDGE ( 'NONE', *, *, #126, .T. ) ;
#104 = ORIENTED_EDGE ( 'NONE', *, *, #139, .T. ) ;
#105 = DIRECTION ( 'NONE',  ( 1.000000000000000000, 0.000000000000000000, 0.000000000000000000 ) ) ;
#106 = CC_DESIGN_PERSON_AND_ORGANIZATION_ASSIGNMENT ( #298, #137, ( #237 ) ) ;
#107 = CARTESIAN_POINT ( 'NONE',  ( 0.5000000000000000000, 6.123233995736766036E-17, 101.2000000000000171 ) ) ;
#108 = DIRECTION ( 'NONE',  ( 1.000000000000000000, 0.000000000000000000, -0.000000000000000000 ) ) ;
#109 = COORDINATED_UNIVERSAL_TIME_OFFSET ( 1, 0, .AHEAD. ) ;
#110 = PRODUCT_DEFINITION_SHAPE ( 'NONE', 'NONE',  #33 ) ;
#111 = PERSON_AND_ORGANIZATION_ROLE ( 'creator' ) ;
#112 = CARTESIAN_POINT ( 'NONE',  ( 0.000000000000000000, 0.000000000000000000, 101.2000000000000171 ) ) ;
#113 = APPROVAL_STATUS ( 'not_yet_approved' ) ;
#114 = CARTESIAN_POINT ( 'NONE',  ( 0.000000000000000000, 0.000000000000000000, 1.199999999999999956 ) ) ;
#115 =( GEOMETRIC_REPRESENTATION_CONTEXT ( 3 ) GLOBAL_UNCERTAINTY_ASSIGNED_CONTEXT ( ( #217 ) ) GLOBAL_UNIT_ASSIGNED_CONTEXT ( ( #66, #42, #41 ) ) REPRESENTATION_CONTEXT ( 'NONE', 'WORKASPACE' ) );
#116 = CALENDAR_DATE ( 2022, 20, 6 ) ;
#117 = ORGANIZATION ( 'NEURÈENÝ', 'NEURÈENÝ', '' ) ;
#118 = PERSON_AND_ORGANIZATION_ROLE ( 'design_owner' ) ;
#119 = ADVANCED_FACE ( 'NONE', ( #38 ), #11, .F. ) ;
#120 = ORIENTED_EDGE ( 'NONE', *, *, #29, .T. ) ;
#121 = CARTESIAN_POINT ( 'NONE',  ( 0.000000000000000000, 0.000000000000000000, 101.2000000000000171 ) ) ;
#122 = EDGE_LOOP ( 'NONE', ( #240, #257, #124, #289 ) ) ;
#123 = EDGE_LOOP ( 'NONE', ( #101, #221, #30, #166 ) ) ;
#124 = ORIENTED_EDGE ( 'NONE', *, *, #210, .T. ) ;
#125 = APPROVAL_PERSON_ORGANIZATION ( #302, #36, #162 ) ;
#126 = EDGE_CURVE ( 'NONE', #238, #141, #270, .T. ) ;
#127 = LOCAL_TIME ( 12, 26, 14.00000000000000000, #199 ) ;
#128 = EDGE_CURVE ( 'NONE', #190, #288, #282, .T. ) ;
#129 = DIRECTION ( 'NONE',  ( -1.000000000000000000, 0.000000000000000000, 0.000000000000000000 ) ) ;
#130 = CARTESIAN_POINT ( 'NONE',  ( 0.000000000000000000, 0.000000000000000000, 0.000000000000000000 ) ) ;
#131 = CIRCLE ( 'NONE', #301, 0.5000000000000000000 ) ;
#132 = DIRECTION ( 'NONE',  ( -0.000000000000000000, -0.000000000000000000, -1.000000000000000000 ) ) ;
#133 = CARTESIAN_POINT ( 'NONE',  ( -0.5000000000000000000, 0.000000000000000000, 101.2000000000000171 ) ) ;
#134 = CARTESIAN_POINT ( 'NONE',  ( -0.5000000000000000000, 0.000000000000000000, 101.2000000000000171 ) ) ;
#135 = DIRECTION ( 'NONE',  ( 0.000000000000000000, 0.000000000000000000, 1.000000000000000000 ) ) ;
#136 = DIRECTION ( 'NONE',  ( 1.224646799147353207E-16, 1.000000000000000000, -0.000000000000000000 ) ) ;
#137 = PERSON_AND_ORGANIZATION_ROLE ( 'creator' ) ;
#138 = PERSON_AND_ORGANIZATION_ROLE ( 'classification_officer' ) ;
#139 = EDGE_CURVE ( 'NONE', #238, #60, #213, .T. ) ;
#140 = VECTOR ( 'NONE', #206, 1000.000000000000000 ) ;
#141 = VERTEX_POINT ( 'NONE', #177 ) ;
#142 = ADVANCED_FACE ( 'NONE', ( #250 ), #225, .T. ) ;
#143 = CARTESIAN_POINT ( 'NONE',  ( 0.000000000000000000, 0.000000000000000000, 1.199999999999999956 ) ) ;
#144 = AXIS2_PLACEMENT_3D ( 'NONE', #44, #183, #271 ) ;
#145 = ORIENTED_EDGE ( 'NONE', *, *, #18, .T. ) ;
#146 = EDGE_LOOP ( 'NONE', ( #290, #263 ) ) ;
#147 = CARTESIAN_POINT ( 'NONE',  ( 0.5000000000000000000, 6.123233995736766036E-17, 101.2000000000000171 ) ) ;
#148 = DIRECTION ( 'NONE',  ( 1.000000000000000000, 0.000000000000000000, 0.000000000000000000 ) ) ;
#149 = AXIS2_PLACEMENT_3D ( 'NONE', #242, #24, #64 ) ;
#150 = FACE_OUTER_BOUND ( 'NONE', #123, .T. ) ;
#151 = CARTESIAN_POINT ( 'NONE',  ( 0.000000000000000000, 0.000000000000000000, 101.2000000000000171 ) ) ;
#152 = APPROVAL_ROLE ( '' ) ;
#153 = DIRECTION ( 'NONE',  ( 0.000000000000000000, 0.000000000000000000, 1.000000000000000000 ) ) ;
#154 = DIRECTION ( 'NONE',  ( 0.000000000000000000, 0.000000000000000000, 1.000000000000000000 ) ) ;
#155 = DIRECTION ( 'NONE',  ( 0.000000000000000000, 0.000000000000000000, 1.000000000000000000 ) ) ;
#156 = DATE_AND_TIME ( #73, #164 ) ;
#157 = FACE_OUTER_BOUND ( 'NONE', #56, .T. ) ;
#158 = PERSON_AND_ORGANIZATION ( #188, #117 ) ;
#159 = CLOSED_SHELL ( 'NONE', ( #8, #2, #142, #5, #211, #119, #75, #79, #40 ) ) ;
#160 = DIRECTION ( 'NONE',  ( 1.000000000000000000, 0.000000000000000000, 0.000000000000000000 ) ) ;
#161 = AXIS2_PLACEMENT_3D ( 'NONE', #50, #59, #108 ) ;
#162 = APPROVAL_ROLE ( '' ) ;
#163 = FACE_OUTER_BOUND ( 'NONE', #80, .T. ) ;
#164 = LOCAL_TIME ( 12, 26, 14.00000000000000000, #71 ) ;
#165 = APPROVAL_PERSON_ORGANIZATION ( #158, #81, #152 ) ;
#166 = ORIENTED_EDGE ( 'NONE', *, *, #275, .T. ) ;
#167 = AXIS2_PLACEMENT_3D ( 'NONE', #10, #197, #105 ) ;
#168 = DESIGN_CONTEXT ( 'detailed design', #90, 'design' ) ;
#169 = EDGE_LOOP ( 'NONE', ( #264, #4, #120, #236 ) ) ;
#170 = FACE_OUTER_BOUND ( 'NONE', #169, .T. ) ;
#171 = EDGE_LOOP ( 'NONE', ( #196, #103, #145, #6 ) ) ;
#172 = ORIENTED_EDGE ( 'NONE', *, *, #195, .T. ) ;
#173 = DIRECTION ( 'NONE',  ( 1.000000000000000000, 0.000000000000000000, -0.000000000000000000 ) ) ;
#174 = DIRECTION ( 'NONE',  ( -0.000000000000000000, -0.000000000000000000, -1.000000000000000000 ) ) ;
#175 = DIRECTION ( 'NONE',  ( 1.000000000000000000, 0.000000000000000000, 0.000000000000000000 ) ) ;
#176 = AXIS2_PLACEMENT_3D ( 'NONE', #222, #37, #175 ) ;
#177 = CARTESIAN_POINT ( 'NONE',  ( 0.5000000000000000000, 6.123233995736766036E-17, 1.399999999999998579 ) ) ;
#178 = AXIS2_PLACEMENT_3D ( 'NONE', #204, #132, #61 ) ;
#179 = MECHANICAL_CONTEXT ( 'NONE', #205, 'mechanical' ) ;
#180 = DIRECTION ( 'NONE',  ( 1.000000000000000000, 0.000000000000000000, 0.000000000000000000 ) ) ;
#181 = CARTESIAN_POINT ( 'NONE',  ( 0.000000000000000000, 0.000000000000000000, 0.000000000000000000 ) ) ;
#182 = DIRECTION ( 'NONE',  ( -1.000000000000000000, 0.000000000000000000, 0.000000000000000000 ) ) ;
#183 = DIRECTION ( 'NONE',  ( 0.000000000000000000, -1.000000000000000000, 0.000000000000000000 ) ) ;
#184 = APPLICATION_PROTOCOL_DEFINITION ( 'international standard', 'config_control_design', 1994, #205 ) ;
#185 = FACE_BOUND ( 'NONE', #146, .T. ) ;
#186 = EDGE_CURVE ( 'NONE', #35, #84, #39, .T. ) ;
#187 = DIRECTION ( 'NONE',  ( 0.000000000000000000, 0.000000000000000000, 1.000000000000000000 ) ) ;
#188 = PERSON ( 'NEURÈENÝ', 'NEURÈENÝ', 'NEURÈENÝ', ('NEURÈENÝ'), ('NEURÈENÝ'), ('NEURÈENÝ') ) ;
#189 = DATE_AND_TIME ( #49, #269 ) ;
#190 = VERTEX_POINT ( 'NONE', #14 ) ;
#191 = ORIENTED_EDGE ( 'NONE', *, *, #305, .T. ) ;
#192 = CC_DESIGN_DATE_AND_TIME_ASSIGNMENT ( #189, #281, ( #262 ) ) ;
#193 = ORIENTED_EDGE ( 'NONE', *, *, #97, .F. ) ;
#194 = VERTEX_POINT ( 'NONE', #47 ) ;
#195 = EDGE_CURVE ( 'NONE', #141, #234, #87, .T. ) ;
#196 = ORIENTED_EDGE ( 'NONE', *, *, #139, .F. ) ;
#197 = DIRECTION ( 'NONE',  ( -0.000000000000000000, -0.000000000000000000, -1.000000000000000000 ) ) ;
#198 = CIRCLE ( 'NONE', #25, 1.250000000000000000 ) ;
#199 = COORDINATED_UNIVERSAL_TIME_OFFSET ( 1, 0, .AHEAD. ) ;
#200 = DIRECTION ( 'NONE',  ( 0.000000000000000000, 0.000000000000000000, 1.000000000000000000 ) ) ;
#201 = CARTESIAN_POINT ( 'NONE',  ( 1.250000000000000000, 1.530808498934191571E-16, 1.199999999999999956 ) ) ;
#202 = CARTESIAN_POINT ( 'NONE',  ( -0.6999999999999999556, 8.572527594031471957E-17, 1.399999999999998579 ) ) ;
#203 = CALENDAR_DATE ( 2022, 20, 6 ) ;
#204 = CARTESIAN_POINT ( 'NONE',  ( 0.000000000000000000, 0.000000000000000000, 1.199999999999999956 ) ) ;
#205 = APPLICATION_CONTEXT ( 'configuration controlled 3d designs of mechanical parts and assemblies' ) ;
#206 = DIRECTION ( 'NONE',  ( -0.000000000000000000, -0.000000000000000000, -1.000000000000000000 ) ) ;
#207 = CIRCLE ( 'NONE', #176, 0.5000000000000000000 ) ;
#208 = APPROVAL_DATE_TIME ( #294, #81 ) ;
#209 = PERSON_AND_ORGANIZATION ( #188, #117 ) ;
#210 = EDGE_CURVE ( 'NONE', #84, #194, #198, .T. ) ;
#211 = ADVANCED_FACE ( 'NONE', ( #185, #157 ), #17, .T. ) ;
#212 = ORIENTED_EDGE ( 'NONE', *, *, #275, .F. ) ;
#213 = CIRCLE ( 'NONE', #26, 0.5000000000000000000 ) ;
#214 = ORIENTED_EDGE ( 'NONE', *, *, #53, .T. ) ;
#215 = AXIS2_PLACEMENT_3D ( 'NONE', #74, #153, #160 ) ;
#216 = ADVANCED_BREP_SHAPE_REPRESENTATION ( 'e769', ( #247, #98 ), #115 ) ;
#217 = UNCERTAINTY_MEASURE_WITH_UNIT (LENGTH_MEASURE( 1.000000000000000082E-05 ), #66, 'distance_accuracy_value', 'NONE');
#218 = ORIENTED_EDGE ( 'NONE', *, *, #287, .F. ) ;
#219 = VECTOR ( 'NONE', #174, 1000.000000000000000 ) ;
#220 = EDGE_LOOP ( 'NONE', ( #58, #1, #172, #54 ) ) ;
#221 = ORIENTED_EDGE ( 'NONE', *, *, #305, .F. ) ;
#222 = CARTESIAN_POINT ( 'NONE',  ( 0.000000000000000000, 0.000000000000000000, 1.399999999999998579 ) ) ;
#223 = VECTOR ( 'NONE', #23, 1000.000000000000000 ) ;
#224 = CARTESIAN_POINT ( 'NONE',  ( 1.250000000000000000, 1.530808498934191571E-16, 1.199999999999999956 ) ) ;
#225 = CYLINDRICAL_SURFACE ( 'NONE', #149, 1.250000000000000000 ) ;
#226 = CIRCLE ( 'NONE', #100, 0.5000000000000000000 ) ;
#227 = APPROVAL_ROLE ( '' ) ;
#228 = CYLINDRICAL_SURFACE ( 'NONE', #55, 0.5000000000000000000 ) ;
#229 = CARTESIAN_POINT ( 'NONE',  ( -0.6999999999999999556, 8.572527594031473190E-17, 1.199999999999999289 ) ) ;
#230 = DIRECTION ( 'NONE',  ( -1.000000000000000000, 1.224646799147352714E-16, 0.000000000000000000 ) ) ;
#231 = PERSON_AND_ORGANIZATION ( #188, #117 ) ;
#232 = APPROVAL_STATUS ( 'not_yet_approved' ) ;
#233 = AXIS2_PLACEMENT_3D ( 'NONE', #181, #70, #63 ) ;
#234 = VERTEX_POINT ( 'NONE', #279 ) ;
#235 = APPROVAL ( #113, 'NEURÈENÝ' ) ;
#236 = ORIENTED_EDGE ( 'NONE', *, *, #97, .T. ) ;
#237 = PRODUCT_DEFINITION_FORMATION_WITH_SPECIFIED_SOURCE ( 'LIBOVOLNÝ', '', #27, .NOT_KNOWN. ) ;
#238 = VERTEX_POINT ( 'NONE', #107 ) ;
#239 = ORIENTED_EDGE ( 'NONE', *, *, #265, .T. ) ;
#240 = ORIENTED_EDGE ( 'NONE', *, *, #265, .F. ) ;
#241 = FACE_OUTER_BOUND ( 'NONE', #220, .T. ) ;
#242 = CARTESIAN_POINT ( 'NONE',  ( 0.000000000000000000, 0.000000000000000000, 1.199999999999999956 ) ) ;
#243 = AXIS2_PLACEMENT_3D ( 'NONE', #267, #43, #46 ) ;
#244 = DIRECTION ( 'NONE',  ( -0.000000000000000000, -0.000000000000000000, -1.000000000000000000 ) ) ;
#245 = DATE_AND_TIME ( #203, #77 ) ;
#246 = CARTESIAN_POINT ( 'NONE',  ( 0.000000000000000000, 0.000000000000000000, 1.399999999999998579 ) ) ;
#247 = MANIFOLD_SOLID_BREP ( 'Zaoblit1', #159 ) ;
#248 = CARTESIAN_POINT ( 'NONE',  ( -1.250000000000000000, 0.000000000000000000, 1.199999999999999956 ) ) ;
#249 = DIRECTION ( 'NONE',  ( 0.000000000000000000, 0.000000000000000000, 1.000000000000000000 ) ) ;
#250 = FACE_OUTER_BOUND ( 'NONE', #122, .T. ) ;
#251 = APPROVAL_STATUS ( 'not_yet_approved' ) ;
#252 = CC_DESIGN_PERSON_AND_ORGANIZATION_ASSIGNMENT ( #280, #118, ( #27 ) ) ;
#253 = SECURITY_CLASSIFICATION_LEVEL ( 'unclassified' ) ;
#254 = PLANE ( 'NONE',  #161 ) ;
#255 = TOROIDAL_SURFACE ( 'NONE', #295, 0.6999999999999999556, 0.2000000000000000111 ) ;
#256 = APPROVAL_PERSON_ORGANIZATION ( #276, #235, #227 ) ;
#257 = ORIENTED_EDGE ( 'NONE', *, *, #186, .T. ) ;
#258 = FACE_OUTER_BOUND ( 'NONE', #171, .T. ) ;
#259 = CIRCLE ( 'NONE', #178, 0.6999999999999999556 ) ;
#260 = CYLINDRICAL_SURFACE ( 'NONE', #3, 1.250000000000000000 ) ;
#261 = CC_DESIGN_DATE_AND_TIME_ASSIGNMENT ( #156, #273, ( #33 ) ) ;
#262 = SECURITY_CLASSIFICATION ( '', '', #253 ) ;
#263 = ORIENTED_EDGE ( 'NONE', *, *, #13, .T. ) ;
#264 = ORIENTED_EDGE ( 'NONE', *, *, #186, .F. ) ;
#265 = EDGE_CURVE ( 'NONE', #35, #83, #57, .T. ) ;
#266 = CC_DESIGN_APPROVAL ( #36, ( #237 ) ) ;
#267 = CARTESIAN_POINT ( 'NONE',  ( 0.000000000000000000, 0.000000000000000000, 1.199999999999999956 ) ) ;
#268 = DIRECTION ( 'NONE',  ( 0.000000000000000000, 0.000000000000000000, 1.000000000000000000 ) ) ;
#269 = LOCAL_TIME ( 12, 26, 14.00000000000000000, #68 ) ;
#270 = LINE ( 'NONE', #147, #292 ) ;
#271 = DIRECTION ( 'NONE',  ( 0.000000000000000000, 0.000000000000000000, -1.000000000000000000 ) ) ;
#272 = CARTESIAN_POINT ( 'NONE',  ( 1.250000000000000000, 1.530808498934191571E-16, 0.000000000000000000 ) ) ;
#273 = DATE_TIME_ROLE ( 'creation_date' ) ;
#274 = CARTESIAN_POINT ( 'NONE',  ( -1.250000000000000000, 0.000000000000000000, 1.199999999999999956 ) ) ;
#275 = EDGE_CURVE ( 'NONE', #190, #141, #207, .T. ) ;
#276 = PERSON_AND_ORGANIZATION ( #188, #117 ) ;
#277 = LINE ( 'NONE', #274, #219 ) ;
#278 = PERSON_AND_ORGANIZATION_ROLE ( 'design_supplier' ) ;
#279 = CARTESIAN_POINT ( 'NONE',  ( 0.6999999999999999556, 0.000000000000000000, 1.199999999999999289 ) ) ;
#280 = PERSON_AND_ORGANIZATION ( #188, #117 ) ;
#281 = DATE_TIME_ROLE ( 'classification_date' ) ;
#282 = CIRCLE ( 'NONE', #32, 0.1999999999999999833 ) ;
#283 = CC_DESIGN_PERSON_AND_ORGANIZATION_ASSIGNMENT ( #94, #278, ( #237 ) ) ;
#284 = CC_DESIGN_APPROVAL ( #235, ( #33 ) ) ;
#285 = ORIENTED_EDGE ( 'NONE', *, *, #210, .F. ) ;
#286 = EDGE_LOOP ( 'NONE', ( #212, #99, #218, #102 ) ) ;
#287 = EDGE_CURVE ( 'NONE', #234, #288, #51, .T. ) ;
#288 = VERTEX_POINT ( 'NONE', #229 ) ;
#289 = ORIENTED_EDGE ( 'NONE', *, *, #29, .F. ) ;
#290 = ORIENTED_EDGE ( 'NONE', *, *, #287, .T. ) ;
#291 = DIRECTION ( 'NONE',  ( 1.000000000000000000, 0.000000000000000000, -0.000000000000000000 ) ) ;
#292 = VECTOR ( 'NONE', #244, 1000.000000000000000 ) ;
#293 = DIRECTION ( 'NONE',  ( 1.000000000000000000, 0.000000000000000000, 0.000000000000000000 ) ) ;
#294 = DATE_AND_TIME ( #116, #127 ) ;
#295 = AXIS2_PLACEMENT_3D ( 'NONE', #92, #154, #20 ) ;
#296 = APPROVAL_DATE_TIME ( #245, #235 ) ;
#297 = DIRECTION ( 'NONE',  ( -0.000000000000000000, -0.000000000000000000, -1.000000000000000000 ) ) ;
#298 = PERSON_AND_ORGANIZATION ( #188, #117 ) ;
#299 = CC_DESIGN_SECURITY_CLASSIFICATION ( #262, ( #237 ) ) ;
#300 = SHAPE_DEFINITION_REPRESENTATION ( #110, #216 ) ;
#301 = AXIS2_PLACEMENT_3D ( 'NONE', #16, #249, #180 ) ;
#302 = PERSON_AND_ORGANIZATION ( #188, #117 ) ;
#303 = PRODUCT_RELATED_PRODUCT_CATEGORY ( 'detail', '', ( #27 ) ) ;
#304 = CC_DESIGN_APPROVAL ( #81, ( #262 ) ) ;
#305 = EDGE_CURVE ( 'NONE', #60, #238, #226, .T. ) ;
#306 = EDGE_LOOP ( 'NONE', ( #193, #285 ) ) ;
#307 = CIRCLE ( 'NONE', #233, 1.250000000000000000 ) ;
ENDSEC;
END-ISO-10303-21;
