ISO-10303-21;
HEADER;
FILE_DESCRIPTION (( 'STEP AP203' ),
    '1' );
FILE_NAME ('851a.STEP',
    '2022-06-20T09:52:23',
    ( '' ),
    ( '' ),
    'SwSTEP 2.0',
    'SolidWorks 2019',
    '' );
FILE_SCHEMA (( 'CONFIG_CONTROL_DESIGN' ));
ENDSEC;

DATA;
#1 = CC_DESIGN_DATE_AND_TIME_ASSIGNMENT ( #114, #182, ( #18 ) ) ;
#2 = CARTESIAN_POINT ( 'NONE',  ( 0.000000000000000000, 0.000000000000000000, 255.0000000000000000 ) ) ;
#3 = DIRECTION ( 'NONE',  ( 1.000000000000000000, 0.000000000000000000, 0.000000000000000000 ) ) ;
#4 =( NAMED_UNIT ( * ) SI_UNIT ( $, .STERADIAN. ) SOLID_ANGLE_UNIT ( ) );
#5 = CC_DESIGN_PERSON_AND_ORGANIZATION_ASSIGNMENT ( #74, #224, ( #263 ) ) ;
#6 = EDGE_LOOP ( 'NONE', ( #214, #294 ) ) ;
#7 = CC_DESIGN_PERSON_AND_ORGANIZATION_ASSIGNMENT ( #76, #163, ( #56 ) ) ;
#8 = EDGE_LOOP ( 'NONE', ( #195, #244, #85, #267 ) ) ;
#9 = AXIS2_PLACEMENT_3D ( 'NONE', #205, #222, #269 ) ;
#10 = ORIENTED_EDGE ( 'NONE', *, *, #284, .T. ) ;
#11 = EDGE_LOOP ( 'NONE', ( #148, #63 ) ) ;
#12 = PRODUCT_DEFINITION ( 'NEZNÁMÝ', '', #263, #206 ) ;
#13 = AXIS2_PLACEMENT_3D ( 'NONE', #218, #201, #88 ) ;
#14 = CARTESIAN_POINT ( 'NONE',  ( 3.700000000000000178, 0.000000000000000000, 5.000000000000005329 ) ) ;
#15 = COORDINATED_UNIVERSAL_TIME_OFFSET ( 1, 0, .AHEAD. ) ;
#16 = EDGE_LOOP ( 'NONE', ( #86, #108 ) ) ;
#17 = APPLICATION_CONTEXT ( 'configuration controlled 3d designs of mechanical parts and assemblies' ) ;
#18 = SECURITY_CLASSIFICATION ( '', '', #251 ) ;
#19 = ORIENTED_EDGE ( 'NONE', *, *, #278, .F. ) ;
#20 = PERSON_AND_ORGANIZATION ( #103, #59 ) ;
#21 = LINE ( 'NONE', #78, #105 ) ;
#22 = DATE_AND_TIME ( #221, #160 ) ;
#23 = CARTESIAN_POINT ( 'NONE',  ( 0.000000000000000000, 0.000000000000000000, 255.0000000000000000 ) ) ;
#24 = EDGE_CURVE ( 'NONE', #38, #150, #94, .T. ) ;
#25 = CALENDAR_DATE ( 2022, 20, 6 ) ;
#26 = APPROVAL_PERSON_ORGANIZATION ( #52, #66, #305 ) ;
#27 = DIRECTION ( 'NONE',  ( 1.000000000000000000, 0.000000000000000000, 0.000000000000000000 ) ) ;
#28 = CIRCLE ( 'NONE', #233, 6.000000000000000888 ) ;
#29 = DIRECTION ( 'NONE',  ( 1.000000000000000000, 0.000000000000000000, 0.000000000000000000 ) ) ;
#30 = DIRECTION ( 'NONE',  ( -0.000000000000000000, -0.000000000000000000, -1.000000000000000000 ) ) ;
#31 = AXIS2_PLACEMENT_3D ( 'NONE', #97, #259, #140 ) ;
#32 = EDGE_CURVE ( 'NONE', #91, #264, #253, .T. ) ;
#33 = MANIFOLD_SOLID_BREP ( 'Zaoblit1', #146 ) ;
#34 = ADVANCED_FACE ( 'NONE', ( #276 ), #92, .T. ) ;
#35 = EDGE_LOOP ( 'NONE', ( #172, #104, #151, #220 ) ) ;
#36 = AXIS2_PLACEMENT_3D ( 'NONE', #262, #102, #165 ) ;
#37 = TOROIDAL_SURFACE ( 'NONE', #265, 3.700000000000000178, 0.2000000000000000111 ) ;
#38 = VERTEX_POINT ( 'NONE', #202 ) ;
#39 = CIRCLE ( 'NONE', #153, 6.000000000000000888 ) ;
#40 = CYLINDRICAL_SURFACE ( 'NONE', #67, 3.500000000000000000 ) ;
#41 = DIRECTION ( 'NONE',  ( 0.000000000000000000, 0.000000000000000000, 1.000000000000000000 ) ) ;
#42 = PERSON_AND_ORGANIZATION ( #103, #59 ) ;
#43 = ADVANCED_FACE ( 'NONE', ( #178 ), #40, .T. ) ;
#44 = DIRECTION ( 'NONE',  ( -0.000000000000000000, -0.000000000000000000, -1.000000000000000000 ) ) ;
#45 = COORDINATED_UNIVERSAL_TIME_OFFSET ( 1, 0, .AHEAD. ) ;
#46 = LOCAL_TIME ( 11, 52, 23.00000000000000000, #307 ) ;
#47 = CARTESIAN_POINT ( 'NONE',  ( 0.000000000000000000, 0.000000000000000000, 5.200000000000009948 ) ) ;
#48 = CALENDAR_DATE ( 2022, 20, 6 ) ;
#49 = FACE_OUTER_BOUND ( 'NONE', #147, .T. ) ;
#50 = APPROVAL ( #132, 'NEURÈENÝ' ) ;
#51 = AXIS2_PLACEMENT_3D ( 'NONE', #115, #113, #306 ) ;
#52 = PERSON_AND_ORGANIZATION ( #103, #59 ) ;
#53 = DIRECTION ( 'NONE',  ( 1.224646799147353207E-16, 1.000000000000000000, -0.000000000000000000 ) ) ;
#54 = CIRCLE ( 'NONE', #213, 0.2000000000000000944 ) ;
#55 = CARTESIAN_POINT ( 'NONE',  ( 0.000000000000000000, 0.000000000000000000, 5.000000000000000000 ) ) ;
#56 = PRODUCT ( '851a', '851a', '', ( #154 ) ) ;
#57 = DIRECTION ( 'NONE',  ( -1.000000000000000000, 1.224646799147350742E-16, 0.000000000000000000 ) ) ;
#58 = FACE_OUTER_BOUND ( 'NONE', #6, .T. ) ;
#59 = ORGANIZATION ( 'NEURÈENÝ', 'NEURÈENÝ', '' ) ;
#60 =( GEOMETRIC_REPRESENTATION_CONTEXT ( 3 ) GLOBAL_UNCERTAINTY_ASSIGNED_CONTEXT ( ( #268 ) ) GLOBAL_UNIT_ASSIGNED_CONTEXT ( ( #232, #261, #4 ) ) REPRESENTATION_CONTEXT ( 'NONE', 'WORKASPACE' ) );
#61 = ORIENTED_EDGE ( 'NONE', *, *, #32, .F. ) ;
#62 = CC_DESIGN_PERSON_AND_ORGANIZATION_ASSIGNMENT ( #89, #72, ( #263 ) ) ;
#63 = ORIENTED_EDGE ( 'NONE', *, *, #149, .T. ) ;
#64 = VERTEX_POINT ( 'NONE', #14 ) ;
#65 = LOCAL_TIME ( 11, 52, 23.00000000000000000, #45 ) ;
#66 = APPROVAL ( #161, 'NEURÈENÝ' ) ;
#67 = AXIS2_PLACEMENT_3D ( 'NONE', #75, #130, #183 ) ;
#68 = VERTEX_POINT ( 'NONE', #274 ) ;
#69 = CARTESIAN_POINT ( 'NONE',  ( 0.000000000000000000, 0.000000000000000000, 255.0000000000000000 ) ) ;
#70 = CARTESIAN_POINT ( 'NONE',  ( 0.000000000000000000, 0.000000000000000000, 5.000000000000000000 ) ) ;
#71 = EDGE_CURVE ( 'NONE', #68, #150, #188, .T. ) ;
#72 = PERSON_AND_ORGANIZATION_ROLE ( 'creator' ) ;
#73 = CARTESIAN_POINT ( 'NONE',  ( 0.000000000000000000, 0.000000000000000000, 5.000000000000000000 ) ) ;
#74 = PERSON_AND_ORGANIZATION ( #103, #59 ) ;
#75 = CARTESIAN_POINT ( 'NONE',  ( 0.000000000000000000, 0.000000000000000000, 255.0000000000000000 ) ) ;
#76 = PERSON_AND_ORGANIZATION ( #103, #59 ) ;
#77 = CC_DESIGN_APPROVAL ( #100, ( #18 ) ) ;
#78 = CARTESIAN_POINT ( 'NONE',  ( 6.000000000000000888, 7.347880794884120722E-16, 5.000000000000000000 ) ) ;
#79 = DIRECTION ( 'NONE',  ( 0.000000000000000000, 0.000000000000000000, 1.000000000000000000 ) ) ;
#80 = CARTESIAN_POINT ( 'NONE',  ( 0.000000000000000000, 0.000000000000000000, 5.200000000000009948 ) ) ;
#81 = AXIS2_PLACEMENT_3D ( 'NONE', #23, #235, #230 ) ;
#82 = DIRECTION ( 'NONE',  ( 1.000000000000000000, 0.000000000000000000, 0.000000000000000000 ) ) ;
#83 = CARTESIAN_POINT ( 'NONE',  ( 0.000000000000000000, 0.000000000000000000, 0.000000000000000000 ) ) ;
#84 = ORIENTED_EDGE ( 'NONE', *, *, #24, .F. ) ;
#85 = ORIENTED_EDGE ( 'NONE', *, *, #186, .F. ) ;
#86 = ORIENTED_EDGE ( 'NONE', *, *, #186, .T. ) ;
#87 = ADVANCED_FACE ( 'NONE', ( #159 ), #37, .F. ) ;
#88 = DIRECTION ( 'NONE',  ( 1.000000000000000000, 0.000000000000000000, 0.000000000000000000 ) ) ;
#89 = PERSON_AND_ORGANIZATION ( #103, #59 ) ;
#90 = CARTESIAN_POINT ( 'NONE',  ( 0.000000000000000000, 0.000000000000000000, 0.000000000000000000 ) ) ;
#91 = VERTEX_POINT ( 'NONE', #279 ) ;
#92 = PLANE ( 'NONE',  #211 ) ;
#93 = PERSON_AND_ORGANIZATION ( #103, #59 ) ;
#94 = LINE ( 'NONE', #111, #166 ) ;
#95 = CIRCLE ( 'NONE', #184, 3.700000000000000178 ) ;
#96 = APPLICATION_PROTOCOL_DEFINITION ( 'international standard', 'config_control_design', 1994, #215 ) ;
#97 = CARTESIAN_POINT ( 'NONE',  ( 0.000000000000000000, 0.000000000000000000, 5.200000000000009948 ) ) ;
#98 = DIRECTION ( 'NONE',  ( 0.000000000000000000, 0.000000000000000000, 1.000000000000000000 ) ) ;
#99 = DIRECTION ( 'NONE',  ( 1.000000000000000000, 0.000000000000000000, -0.000000000000000000 ) ) ;
#100 = APPROVAL ( #116, 'NEURÈENÝ' ) ;
#101 = APPROVAL_PERSON_ORGANIZATION ( #137, #100, #299 ) ;
#102 = DIRECTION ( 'NONE',  ( -0.000000000000000000, -0.000000000000000000, -1.000000000000000000 ) ) ;
#103 = PERSON ( 'NEURÈENÝ', 'NEURÈENÝ', 'NEURÈENÝ', ('NEURÈENÝ'), ('NEURÈENÝ'), ('NEURÈENÝ') ) ;
#104 = ORIENTED_EDGE ( 'NONE', *, *, #122, .F. ) ;
#105 = VECTOR ( 'NONE', #44, 1000.000000000000000 ) ;
#106 = ORIENTED_EDGE ( 'NONE', *, *, #193, .F. ) ;
#107 = ORIENTED_EDGE ( 'NONE', *, *, #129, .T. ) ;
#108 = ORIENTED_EDGE ( 'NONE', *, *, #243, .T. ) ;
#109 = DIRECTION ( 'NONE',  ( 1.000000000000000000, 0.000000000000000000, -0.000000000000000000 ) ) ;
#110 = DIRECTION ( 'NONE',  ( 0.000000000000000000, 0.000000000000000000, 1.000000000000000000 ) ) ;
#111 = CARTESIAN_POINT ( 'NONE',  ( -3.500000000000000000, 0.000000000000000000, 255.0000000000000000 ) ) ;
#112 = AXIS2_PLACEMENT_3D ( 'NONE', #257, #219, #255 ) ;
#113 = DIRECTION ( 'NONE',  ( 0.000000000000000000, -1.000000000000000000, 0.000000000000000000 ) ) ;
#114 = DATE_AND_TIME ( #25, #65 ) ;
#115 = CARTESIAN_POINT ( 'NONE',  ( 3.700000000000000178, 0.000000000000000000, 5.200000000000009948 ) ) ;
#116 = APPROVAL_STATUS ( 'not_yet_approved' ) ;
#117 = CARTESIAN_POINT ( 'NONE',  ( 3.500000000000000000, 4.286263797015736595E-16, 255.0000000000000000 ) ) ;
#118 = VECTOR ( 'NONE', #204, 1000.000000000000000 ) ;
#119 = EDGE_CURVE ( 'NONE', #264, #197, #170, .T. ) ;
#120 = CARTESIAN_POINT ( 'NONE',  ( -6.000000000000000888, 0.000000000000000000, 0.000000000000000000 ) ) ;
#121 = FACE_OUTER_BOUND ( 'NONE', #173, .T. ) ;
#122 = EDGE_CURVE ( 'NONE', #91, #290, #28, .T. ) ;
#123 = ORIENTED_EDGE ( 'NONE', *, *, #284, .F. ) ;
#124 = CIRCLE ( 'NONE', #31, 3.500000000000000000 ) ;
#125 = ORIENTED_EDGE ( 'NONE', *, *, #243, .F. ) ;
#126 = ORIENTED_EDGE ( 'NONE', *, *, #149, .F. ) ;
#127 = ORIENTED_EDGE ( 'NONE', *, *, #234, .T. ) ;
#128 = AXIS2_PLACEMENT_3D ( 'NONE', #258, #79, #27 ) ;
#129 = EDGE_CURVE ( 'NONE', #290, #197, #21, .T. ) ;
#130 = DIRECTION ( 'NONE',  ( -0.000000000000000000, -0.000000000000000000, -1.000000000000000000 ) ) ;
#131 = DIRECTION ( 'NONE',  ( -0.000000000000000000, -0.000000000000000000, -1.000000000000000000 ) ) ;
#132 = APPROVAL_STATUS ( 'not_yet_approved' ) ;
#133 = CYLINDRICAL_SURFACE ( 'NONE', #9, 6.000000000000000888 ) ;
#134 = COORDINATED_UNIVERSAL_TIME_OFFSET ( 1, 0, .AHEAD. ) ;
#135 = DIRECTION ( 'NONE',  ( 0.000000000000000000, 0.000000000000000000, 1.000000000000000000 ) ) ;
#136 = ADVANCED_FACE ( 'NONE', ( #49 ), #133, .T. ) ;
#137 = PERSON_AND_ORGANIZATION ( #103, #59 ) ;
#138 = PLANE ( 'NONE',  #240 ) ;
#139 = DATE_AND_TIME ( #48, #266 ) ;
#140 = DIRECTION ( 'NONE',  ( 1.000000000000000000, 0.000000000000000000, 0.000000000000000000 ) ) ;
#141 = EDGE_CURVE ( 'NONE', #68, #64, #143, .T. ) ;
#142 = DIRECTION ( 'NONE',  ( 0.000000000000000000, 0.000000000000000000, 1.000000000000000000 ) ) ;
#143 = CIRCLE ( 'NONE', #51, 0.1999999999999996503 ) ;
#144 = CARTESIAN_POINT ( 'NONE',  ( 3.500000000000000000, 4.286263797015736595E-16, 255.0000000000000000 ) ) ;
#145 = CARTESIAN_POINT ( 'NONE',  ( 6.000000000000000888, 7.347880794884120722E-16, 0.000000000000000000 ) ) ;
#146 = CLOSED_SHELL ( 'NONE', ( #87, #288, #136, #226, #158, #270, #43, #34, #304 ) ) ;
#147 = EDGE_LOOP ( 'NONE', ( #123, #107, #245, #61 ) ) ;
#148 = ORIENTED_EDGE ( 'NONE', *, *, #278, .T. ) ;
#149 = EDGE_CURVE ( 'NONE', #296, #38, #194, .T. ) ;
#150 = VERTEX_POINT ( 'NONE', #256 ) ;
#151 = ORIENTED_EDGE ( 'NONE', *, *, #32, .T. ) ;
#152 = CARTESIAN_POINT ( 'NONE',  ( -3.700000000000000178, 4.531193156845206201E-16, 5.200000000000009948 ) ) ;
#153 = AXIS2_PLACEMENT_3D ( 'NONE', #55, #283, #167 ) ;
#154 = MECHANICAL_CONTEXT ( 'NONE', #215, 'mechanical' ) ;
#155 = CARTESIAN_POINT ( 'NONE',  ( 0.000000000000000000, 0.000000000000000000, 5.200000000000009948 ) ) ;
#156 = DIRECTION ( 'NONE',  ( 1.000000000000000000, 0.000000000000000000, 0.000000000000000000 ) ) ;
#157 = PERSON_AND_ORGANIZATION_ROLE ( 'classification_officer' ) ;
#158 = ADVANCED_FACE ( 'NONE', ( #300, #272 ), #138, .T. ) ;
#159 = FACE_OUTER_BOUND ( 'NONE', #8, .T. ) ;
#160 = LOCAL_TIME ( 11, 52, 23.00000000000000000, #180 ) ;
#161 = APPROVAL_STATUS ( 'not_yet_approved' ) ;
#162 = DIRECTION ( 'NONE',  ( 1.000000000000000000, 0.000000000000000000, 0.000000000000000000 ) ) ;
#163 = PERSON_AND_ORGANIZATION_ROLE ( 'design_owner' ) ;
#164 = FACE_OUTER_BOUND ( 'NONE', #200, .T. ) ;
#165 = DIRECTION ( 'NONE',  ( -1.000000000000000000, 0.000000000000000000, 0.000000000000000000 ) ) ;
#166 = VECTOR ( 'NONE', #131, 1000.000000000000000 ) ;
#167 = DIRECTION ( 'NONE',  ( 1.000000000000000000, 0.000000000000000000, 0.000000000000000000 ) ) ;
#168 = CC_DESIGN_APPROVAL ( #66, ( #12 ) ) ;
#169 = ORIENTED_EDGE ( 'NONE', *, *, #234, .F. ) ;
#170 = CIRCLE ( 'NONE', #242, 6.000000000000000888 ) ;
#171 = ORIENTED_EDGE ( 'NONE', *, *, #141, .T. ) ;
#172 = ORIENTED_EDGE ( 'NONE', *, *, #129, .F. ) ;
#173 = EDGE_LOOP ( 'NONE', ( #126, #127, #174, #84 ) ) ;
#174 = ORIENTED_EDGE ( 'NONE', *, *, #71, .T. ) ;
#175 = APPROVAL_ROLE ( '' ) ;
#176 = DIRECTION ( 'NONE',  ( 0.000000000000000000, 0.000000000000000000, 1.000000000000000000 ) ) ;
#177 = VECTOR ( 'NONE', #212, 1000.000000000000000 ) ;
#178 = FACE_OUTER_BOUND ( 'NONE', #297, .T. ) ;
#179 = PRODUCT_RELATED_PRODUCT_CATEGORY ( 'detail', '', ( #56 ) ) ;
#180 = COORDINATED_UNIVERSAL_TIME_OFFSET ( 1, 0, .AHEAD. ) ;
#181 = CARTESIAN_POINT ( 'NONE',  ( 0.000000000000000000, 0.000000000000000000, 255.0000000000000000 ) ) ;
#182 = DATE_TIME_ROLE ( 'classification_date' ) ;
#183 = DIRECTION ( 'NONE',  ( -1.000000000000000000, 0.000000000000000000, 0.000000000000000000 ) ) ;
#184 = AXIS2_PLACEMENT_3D ( 'NONE', #190, #30, #3 ) ;
#185 = APPLICATION_PROTOCOL_DEFINITION ( 'international standard', 'config_control_design', 1994, #17 ) ;
#186 = EDGE_CURVE ( 'NONE', #64, #239, #286, .T. ) ;
#187 = PLANE ( 'NONE',  #254 ) ;
#188 = CIRCLE ( 'NONE', #293, 3.500000000000000000 ) ;
#189 = CARTESIAN_POINT ( 'NONE',  ( 6.000000000000000888, 7.347880794884120722E-16, 5.000000000000000000 ) ) ;
#190 = CARTESIAN_POINT ( 'NONE',  ( 0.000000000000000000, 0.000000000000000000, 5.000000000000000000 ) ) ;
#191 = TOROIDAL_SURFACE ( 'NONE', #291, 3.700000000000000178, 0.2000000000000000111 ) ;
#192 = PRODUCT_DEFINITION_SHAPE ( 'NONE', 'NONE',  #12 ) ;
#193 = EDGE_CURVE ( 'NONE', #150, #239, #54, .T. ) ;
#194 = CIRCLE ( 'NONE', #203, 3.500000000000000000 ) ;
#195 = ORIENTED_EDGE ( 'NONE', *, *, #237, .F. ) ;
#196 = LOCAL_TIME ( 11, 52, 23.00000000000000000, #134 ) ;
#197 = VERTEX_POINT ( 'NONE', #145 ) ;
#198 = CC_DESIGN_PERSON_AND_ORGANIZATION_ASSIGNMENT ( #93, #157, ( #18 ) ) ;
#199 = APPROVAL_PERSON_ORGANIZATION ( #42, #50, #175 ) ;
#200 = EDGE_LOOP ( 'NONE', ( #106, #216, #171, #125 ) ) ;
#201 = DIRECTION ( 'NONE',  ( -0.000000000000000000, -0.000000000000000000, -1.000000000000000000 ) ) ;
#202 = CARTESIAN_POINT ( 'NONE',  ( -3.500000000000000000, 0.000000000000000000, 255.0000000000000000 ) ) ;
#203 = AXIS2_PLACEMENT_3D ( 'NONE', #69, #303, #162 ) ;
#204 = DIRECTION ( 'NONE',  ( -0.000000000000000000, -0.000000000000000000, -1.000000000000000000 ) ) ;
#205 = CARTESIAN_POINT ( 'NONE',  ( 0.000000000000000000, 0.000000000000000000, 5.000000000000000000 ) ) ;
#206 = DESIGN_CONTEXT ( 'detailed design', #17, 'design' ) ;
#207 = DIRECTION ( 'NONE',  ( 1.000000000000000000, 0.000000000000000000, 0.000000000000000000 ) ) ;
#208 = PERSON_AND_ORGANIZATION_ROLE ( 'creator' ) ;
#209 = CYLINDRICAL_SURFACE ( 'NONE', #81, 3.500000000000000000 ) ;
#210 = CARTESIAN_POINT ( 'NONE',  ( -3.700000000000000178, 4.531193156845206201E-16, 5.000000000000005329 ) ) ;
#211 = AXIS2_PLACEMENT_3D ( 'NONE', #181, #41, #225 ) ;
#212 = DIRECTION ( 'NONE',  ( -0.000000000000000000, -0.000000000000000000, -1.000000000000000000 ) ) ;
#213 = AXIS2_PLACEMENT_3D ( 'NONE', #152, #53, #57 ) ;
#214 = ORIENTED_EDGE ( 'NONE', *, *, #119, .F. ) ;
#215 = APPLICATION_CONTEXT ( 'configuration controlled 3d designs of mechanical parts and assemblies' ) ;
#216 = ORIENTED_EDGE ( 'NONE', *, *, #71, .F. ) ;
#217 = EDGE_LOOP ( 'NONE', ( #298, #10 ) ) ;
#218 = CARTESIAN_POINT ( 'NONE',  ( 0.000000000000000000, 0.000000000000000000, 5.000000000000000000 ) ) ;
#219 = DIRECTION ( 'NONE',  ( 0.000000000000000000, 0.000000000000000000, 1.000000000000000000 ) ) ;
#220 = ORIENTED_EDGE ( 'NONE', *, *, #119, .T. ) ;
#221 = CALENDAR_DATE ( 2022, 20, 6 ) ;
#222 = DIRECTION ( 'NONE',  ( -0.000000000000000000, -0.000000000000000000, -1.000000000000000000 ) ) ;
#223 = CIRCLE ( 'NONE', #280, 3.500000000000000000 ) ;
#224 = PERSON_AND_ORGANIZATION_ROLE ( 'design_supplier' ) ;
#225 = DIRECTION ( 'NONE',  ( 1.000000000000000000, 0.000000000000000000, -0.000000000000000000 ) ) ;
#226 = ADVANCED_FACE ( 'NONE', ( #287 ), #285, .T. ) ;
#227 = CALENDAR_DATE ( 2022, 20, 6 ) ;
#228 = DIRECTION ( 'NONE',  ( 0.000000000000000000, 0.000000000000000000, 1.000000000000000000 ) ) ;
#229 = APPROVAL_DATE_TIME ( #22, #50 ) ;
#230 = DIRECTION ( 'NONE',  ( -1.000000000000000000, 0.000000000000000000, 0.000000000000000000 ) ) ;
#231 = CIRCLE ( 'NONE', #128, 6.000000000000000888 ) ;
#232 =( LENGTH_UNIT ( ) NAMED_UNIT ( * ) SI_UNIT ( .MILLI., .METRE. ) );
#233 = AXIS2_PLACEMENT_3D ( 'NONE', #73, #250, #248 ) ;
#234 = EDGE_CURVE ( 'NONE', #296, #68, #236, .T. ) ;
#235 = DIRECTION ( 'NONE',  ( -0.000000000000000000, -0.000000000000000000, -1.000000000000000000 ) ) ;
#236 = LINE ( 'NONE', #144, #177 ) ;
#237 = EDGE_CURVE ( 'NONE', #150, #68, #124, .T. ) ;
#238 = ORIENTED_EDGE ( 'NONE', *, *, #237, .T. ) ;
#239 = VERTEX_POINT ( 'NONE', #210 ) ;
#240 = AXIS2_PLACEMENT_3D ( 'NONE', #70, #228, #109 ) ;
#241 = CC_DESIGN_SECURITY_CLASSIFICATION ( #18, ( #263 ) ) ;
#242 = AXIS2_PLACEMENT_3D ( 'NONE', #90, #110, #246 ) ;
#243 = EDGE_CURVE ( 'NONE', #239, #64, #95, .T. ) ;
#244 = ORIENTED_EDGE ( 'NONE', *, *, #193, .T. ) ;
#245 = ORIENTED_EDGE ( 'NONE', *, *, #295, .T. ) ;
#246 = DIRECTION ( 'NONE',  ( 1.000000000000000000, 0.000000000000000000, 0.000000000000000000 ) ) ;
#247 = DATE_AND_TIME ( #271, #46 ) ;
#248 = DIRECTION ( 'NONE',  ( 1.000000000000000000, 0.000000000000000000, 0.000000000000000000 ) ) ;
#249 = DATE_AND_TIME ( #227, #196 ) ;
#250 = DIRECTION ( 'NONE',  ( 0.000000000000000000, 0.000000000000000000, 1.000000000000000000 ) ) ;
#251 = SECURITY_CLASSIFICATION_LEVEL ( 'unclassified' ) ;
#252 = CC_DESIGN_DATE_AND_TIME_ASSIGNMENT ( #139, #275, ( #12 ) ) ;
#253 = LINE ( 'NONE', #302, #118 ) ;
#254 = AXIS2_PLACEMENT_3D ( 'NONE', #83, #282, #99 ) ;
#255 = DIRECTION ( 'NONE',  ( 1.000000000000000000, 0.000000000000000000, 0.000000000000000000 ) ) ;
#256 = CARTESIAN_POINT ( 'NONE',  ( -3.500000000000000000, 0.000000000000000000, 5.200000000000009948 ) ) ;
#257 = CARTESIAN_POINT ( 'NONE',  ( 0.000000000000000000, 0.000000000000000000, 0.000000000000000000 ) ) ;
#258 = CARTESIAN_POINT ( 'NONE',  ( 0.000000000000000000, 0.000000000000000000, 0.000000000000000000 ) ) ;
#259 = DIRECTION ( 'NONE',  ( 0.000000000000000000, 0.000000000000000000, 1.000000000000000000 ) ) ;
#260 = CC_DESIGN_PERSON_AND_ORGANIZATION_ASSIGNMENT ( #20, #208, ( #12 ) ) ;
#261 =( NAMED_UNIT ( * ) PLANE_ANGLE_UNIT ( ) SI_UNIT ( $, .RADIAN. ) );
#262 = CARTESIAN_POINT ( 'NONE',  ( 0.000000000000000000, 0.000000000000000000, 5.000000000000000000 ) ) ;
#263 = PRODUCT_DEFINITION_FORMATION_WITH_SPECIFIED_SOURCE ( 'LIBOVOLNÝ', '', #56, .NOT_KNOWN. ) ;
#264 = VERTEX_POINT ( 'NONE', #120 ) ;
#265 = AXIS2_PLACEMENT_3D ( 'NONE', #47, #135, #156 ) ;
#266 = LOCAL_TIME ( 11, 52, 23.00000000000000000, #15 ) ;
#267 = ORIENTED_EDGE ( 'NONE', *, *, #141, .F. ) ;
#268 = UNCERTAINTY_MEASURE_WITH_UNIT (LENGTH_MEASURE( 1.000000000000000082E-05 ), #232, 'distance_accuracy_value', 'NONE');
#269 = DIRECTION ( 'NONE',  ( -1.000000000000000000, 0.000000000000000000, 0.000000000000000000 ) ) ;
#270 = ADVANCED_FACE ( 'NONE', ( #58 ), #187, .F. ) ;
#271 = CALENDAR_DATE ( 2022, 20, 6 ) ;
#272 = FACE_OUTER_BOUND ( 'NONE', #217, .T. ) ;
#273 = APPROVAL_DATE_TIME ( #249, #66 ) ;
#274 = CARTESIAN_POINT ( 'NONE',  ( 3.500000000000000000, 4.286263797015736595E-16, 5.200000000000009948 ) ) ;
#275 = DATE_TIME_ROLE ( 'creation_date' ) ;
#276 = FACE_OUTER_BOUND ( 'NONE', #11, .T. ) ;
#277 = SHAPE_DEFINITION_REPRESENTATION ( #192, #289 ) ;
#278 = EDGE_CURVE ( 'NONE', #38, #296, #223, .T. ) ;
#279 = CARTESIAN_POINT ( 'NONE',  ( -6.000000000000000888, 0.000000000000000000, 5.000000000000000000 ) ) ;
#280 = AXIS2_PLACEMENT_3D ( 'NONE', #2, #98, #82 ) ;
#281 = APPROVAL_DATE_TIME ( #247, #100 ) ;
#282 = DIRECTION ( 'NONE',  ( 0.000000000000000000, 0.000000000000000000, 1.000000000000000000 ) ) ;
#283 = DIRECTION ( 'NONE',  ( 0.000000000000000000, 0.000000000000000000, 1.000000000000000000 ) ) ;
#284 = EDGE_CURVE ( 'NONE', #290, #91, #39, .T. ) ;
#285 = CYLINDRICAL_SURFACE ( 'NONE', #36, 6.000000000000000888 ) ;
#286 = CIRCLE ( 'NONE', #13, 3.700000000000000178 ) ;
#287 = FACE_OUTER_BOUND ( 'NONE', #35, .T. ) ;
#288 = ADVANCED_FACE ( 'NONE', ( #121 ), #209, .T. ) ;
#289 = ADVANCED_BREP_SHAPE_REPRESENTATION ( '851a', ( #33, #112 ), #60 ) ;
#290 = VERTEX_POINT ( 'NONE', #189 ) ;
#291 = AXIS2_PLACEMENT_3D ( 'NONE', #80, #142, #29 ) ;
#292 = ORIENTED_EDGE ( 'NONE', *, *, #24, .T. ) ;
#293 = AXIS2_PLACEMENT_3D ( 'NONE', #155, #176, #207 ) ;
#294 = ORIENTED_EDGE ( 'NONE', *, *, #295, .F. ) ;
#295 = EDGE_CURVE ( 'NONE', #197, #264, #231, .T. ) ;
#296 = VERTEX_POINT ( 'NONE', #117 ) ;
#297 = EDGE_LOOP ( 'NONE', ( #169, #19, #292, #238 ) ) ;
#298 = ORIENTED_EDGE ( 'NONE', *, *, #122, .T. ) ;
#299 = APPROVAL_ROLE ( '' ) ;
#300 = FACE_BOUND ( 'NONE', #16, .T. ) ;
#301 = CC_DESIGN_APPROVAL ( #50, ( #263 ) ) ;
#302 = CARTESIAN_POINT ( 'NONE',  ( -6.000000000000000888, 0.000000000000000000, 5.000000000000000000 ) ) ;
#303 = DIRECTION ( 'NONE',  ( 0.000000000000000000, 0.000000000000000000, 1.000000000000000000 ) ) ;
#304 = ADVANCED_FACE ( 'NONE', ( #164 ), #191, .F. ) ;
#305 = APPROVAL_ROLE ( '' ) ;
#306 = DIRECTION ( 'NONE',  ( 0.000000000000000000, 0.000000000000000000, -1.000000000000000000 ) ) ;
#307 = COORDINATED_UNIVERSAL_TIME_OFFSET ( 1, 0, .AHEAD. ) ;
ENDSEC;
END-ISO-10303-21;
