ISO-10303-21;
HEADER;
FILE_DESCRIPTION (( 'STEP AP203' ),
    '1' );
FILE_NAME ('7d8b.STEP',
    '2022-06-20T10:17:07',
    ( '' ),
    ( '' ),
    'SwSTEP 2.0',
    'SolidWorks 2019',
    '' );
FILE_SCHEMA (( 'CONFIG_CONTROL_DESIGN' ));
ENDSEC;

DATA;
#1 = CARTESIAN_POINT ( 'NONE',  ( 0.000000000000000000, 0.000000000000000000, 0.000000000000000000 ) ) ;
#2 = DESIGN_CONTEXT ( 'detailed design', #257, 'design' ) ;
#3 = CARTESIAN_POINT ( 'NONE',  ( 1.450000000000000178, 0.000000000000000000, 1.999999999999989564 ) ) ;
#4 = LOCAL_TIME ( 12, 17, 7.000000000000000000, #286 ) ;
#5 = ORIENTED_EDGE ( 'NONE', *, *, #48, .T. ) ;
#6 = VERTEX_POINT ( 'NONE', #129 ) ;
#7 = EDGE_CURVE ( 'NONE', #222, #22, #205, .T. ) ;
#8 = LINE ( 'NONE', #258, #201 ) ;
#9 = DIRECTION ( 'NONE',  ( 0.000000000000000000, 0.000000000000000000, 1.000000000000000000 ) ) ;
#10 = ORIENTED_EDGE ( 'NONE', *, *, #142, .F. ) ;
#11 = PLANE ( 'NONE',  #81 ) ;
#12 = AXIS2_PLACEMENT_3D ( 'NONE', #14, #190, #150 ) ;
#13 = APPROVAL_ROLE ( '' ) ;
#14 = CARTESIAN_POINT ( 'NONE',  ( 0.000000000000000000, 0.000000000000000000, 2.000000000000000000 ) ) ;
#15 = PERSON_AND_ORGANIZATION ( #121, #214 ) ;
#16 = CYLINDRICAL_SURFACE ( 'NONE', #267, 2.500000000000000000 ) ;
#17 = APPROVAL ( #191, 'NEURÈENÝ' ) ;
#18 = DIRECTION ( 'NONE',  ( -1.000000000000000000, 0.000000000000000000, 0.000000000000000000 ) ) ;
#19 = CC_DESIGN_PERSON_AND_ORGANIZATION_ASSIGNMENT ( #227, #229, ( #143 ) ) ;
#20 = DIRECTION ( 'NONE',  ( 0.000000000000000000, 0.000000000000000000, 1.000000000000000000 ) ) ;
#21 = CARTESIAN_POINT ( 'NONE',  ( 0.000000000000000000, 0.000000000000000000, 2.199999999999979750 ) ) ;
#22 = VERTEX_POINT ( 'NONE', #236 ) ;
#23 = CC_DESIGN_PERSON_AND_ORGANIZATION_ASSIGNMENT ( #63, #285, ( #140 ) ) ;
#24 = CIRCLE ( 'NONE', #230, 0.2000000000000000944 ) ;
#25 = VERTEX_POINT ( 'NONE', #234 ) ;
#26 = LOCAL_TIME ( 12, 17, 7.000000000000000000, #59 ) ;
#27 = DIRECTION ( 'NONE',  ( 0.000000000000000000, 0.000000000000000000, 1.000000000000000000 ) ) ;
#28 = ORIENTED_EDGE ( 'NONE', *, *, #100, .F. ) ;
#29 = ORIENTED_EDGE ( 'NONE', *, *, #142, .T. ) ;
#30 = CARTESIAN_POINT ( 'NONE',  ( 1.250000000000000000, 1.530808498934191571E-16, 2.199999999999979750 ) ) ;
#31 = DIRECTION ( 'NONE',  ( -0.000000000000000000, -0.000000000000000000, -1.000000000000000000 ) ) ;
#32 =( NAMED_UNIT ( * ) PLANE_ANGLE_UNIT ( ) SI_UNIT ( $, .RADIAN. ) );
#33 = ADVANCED_BREP_SHAPE_REPRESENTATION ( '7d8b', ( #238, #50 ), #232 ) ;
#34 = VECTOR ( 'NONE', #306, 1000.000000000000000 ) ;
#35 = CARTESIAN_POINT ( 'NONE',  ( 0.000000000000000000, 0.000000000000000000, 2.199999999999979750 ) ) ;
#36 = APPROVAL_STATUS ( 'not_yet_approved' ) ;
#37 = PERSON_AND_ORGANIZATION ( #121, #214 ) ;
#38 = DIRECTION ( 'NONE',  ( 1.000000000000000000, 0.000000000000000000, 0.000000000000000000 ) ) ;
#39 = AXIS2_PLACEMENT_3D ( 'NONE', #280, #297, #161 ) ;
#40 = EDGE_CURVE ( 'NONE', #223, #111, #127, .T. ) ;
#41 = LOCAL_TIME ( 12, 17, 7.000000000000000000, #305 ) ;
#42 = CARTESIAN_POINT ( 'NONE',  ( -2.500000000000000000, 0.000000000000000000, 2.000000000000000000 ) ) ;
#43 = CYLINDRICAL_SURFACE ( 'NONE', #243, 1.250000000000000000 ) ;
#44 = DIRECTION ( 'NONE',  ( 0.000000000000000000, 0.000000000000000000, 1.000000000000000000 ) ) ;
#45 = LINE ( 'NONE', #144, #294 ) ;
#46 = CARTESIAN_POINT ( 'NONE',  ( -1.450000000000000178, 1.775737858763662409E-16, 1.999999999999989564 ) ) ;
#47 = VERTEX_POINT ( 'NONE', #281 ) ;
#48 = EDGE_CURVE ( 'NONE', #47, #22, #255, .T. ) ;
#49 = AXIS2_PLACEMENT_3D ( 'NONE', #256, #302, #85 ) ;
#50 = AXIS2_PLACEMENT_3D ( 'NONE', #159, #9, #108 ) ;
#51 = AXIS2_PLACEMENT_3D ( 'NONE', #251, #27, #103 ) ;
#52 = CARTESIAN_POINT ( 'NONE',  ( 0.000000000000000000, 0.000000000000000000, 2.000000000000000000 ) ) ;
#53 = ORIENTED_EDGE ( 'NONE', *, *, #40, .T. ) ;
#54 = DIRECTION ( 'NONE',  ( -1.000000000000000000, 1.224646799147353207E-16, 0.000000000000000000 ) ) ;
#55 = EDGE_CURVE ( 'NONE', #222, #6, #97, .T. ) ;
#56 = AXIS2_PLACEMENT_3D ( 'NONE', #52, #124, #273 ) ;
#57 = APPROVAL_DATE_TIME ( #237, #17 ) ;
#58 = DIRECTION ( 'NONE',  ( 1.000000000000000000, 0.000000000000000000, -0.000000000000000000 ) ) ;
#59 = COORDINATED_UNIVERSAL_TIME_OFFSET ( 1, 0, .AHEAD. ) ;
#60 = DIRECTION ( 'NONE',  ( 0.000000000000000000, 0.000000000000000000, 1.000000000000000000 ) ) ;
#61 = ORIENTED_EDGE ( 'NONE', *, *, #291, .T. ) ;
#62 = CIRCLE ( 'NONE', #272, 0.2000000000000000944 ) ;
#63 = PERSON_AND_ORGANIZATION ( #121, #214 ) ;
#64 = AXIS2_PLACEMENT_3D ( 'NONE', #1, #195, #120 ) ;
#65 = CARTESIAN_POINT ( 'NONE',  ( 0.000000000000000000, 0.000000000000000000, 2.000000000000000000 ) ) ;
#66 = DIRECTION ( 'NONE',  ( -0.000000000000000000, -0.000000000000000000, -1.000000000000000000 ) ) ;
#67 = ADVANCED_FACE ( 'NONE', ( #135 ), #16, .T. ) ;
#68 = DIRECTION ( 'NONE',  ( 1.000000000000000000, 0.000000000000000000, 0.000000000000000000 ) ) ;
#69 = VECTOR ( 'NONE', #268, 1000.000000000000000 ) ;
#70 = CIRCLE ( 'NONE', #56, 1.450000000000000178 ) ;
#71 = CARTESIAN_POINT ( 'NONE',  ( -1.250000000000000000, 0.000000000000000000, 2.199999999999979750 ) ) ;
#72 = ADVANCED_FACE ( 'NONE', ( #112 ), #11, .F. ) ;
#73 = VERTEX_POINT ( 'NONE', #152 ) ;
#74 = EDGE_LOOP ( 'NONE', ( #10, #147, #5, #104 ) ) ;
#75 = CC_DESIGN_PERSON_AND_ORGANIZATION_ASSIGNMENT ( #90, #263, ( #249 ) ) ;
#76 = PLANE ( 'NONE',  #51 ) ;
#77 = ORIENTED_EDGE ( 'NONE', *, *, #126, .T. ) ;
#78 = DIRECTION ( 'NONE',  ( -0.000000000000000000, -0.000000000000000000, -1.000000000000000000 ) ) ;
#79 = CARTESIAN_POINT ( 'NONE',  ( -1.450000000000000178, 1.775737858763662163E-16, 2.199999999999979750 ) ) ;
#80 =( NAMED_UNIT ( * ) SI_UNIT ( $, .STERADIAN. ) SOLID_ANGLE_UNIT ( ) );
#81 = AXIS2_PLACEMENT_3D ( 'NONE', #253, #154, #58 ) ;
#82 = ORIENTED_EDGE ( 'NONE', *, *, #293, .F. ) ;
#83 = APPROVAL_PERSON_ORGANIZATION ( #37, #17, #13 ) ;
#84 = COORDINATED_UNIVERSAL_TIME_OFFSET ( 1, 0, .AHEAD. ) ;
#85 = DIRECTION ( 'NONE',  ( 1.000000000000000000, 0.000000000000000000, 0.000000000000000000 ) ) ;
#86 = DATE_AND_TIME ( #180, #276 ) ;
#87 = ORIENTED_EDGE ( 'NONE', *, *, #275, .T. ) ;
#88 = PERSON_AND_ORGANIZATION ( #121, #214 ) ;
#89 = CIRCLE ( 'NONE', #160, 1.250000000000000000 ) ;
#90 = PERSON_AND_ORGANIZATION ( #121, #214 ) ;
#91 = DIRECTION ( 'NONE',  ( 0.000000000000000000, 0.000000000000000000, 1.000000000000000000 ) ) ;
#92 = LINE ( 'NONE', #213, #69 ) ;
#93 = CC_DESIGN_APPROVAL ( #95, ( #143 ) ) ;
#94 = CARTESIAN_POINT ( 'NONE',  ( 0.000000000000000000, 0.000000000000000000, 502.0000000000000000 ) ) ;
#95 = APPROVAL ( #36, 'NEURÈENÝ' ) ;
#96 = ORIENTED_EDGE ( 'NONE', *, *, #126, .F. ) ;
#97 = CIRCLE ( 'NONE', #12, 2.500000000000000000 ) ;
#98 = CIRCLE ( 'NONE', #151, 1.250000000000000000 ) ;
#100 = EDGE_CURVE ( 'NONE', #111, #148, #24, .T. ) ;
#99 = FACE_BOUND ( 'NONE', #211, .T. ) ;
#101 = ORIENTED_EDGE ( 'NONE', *, *, #100, .T. ) ;
#102 = PRODUCT ( '7d8b', '7d8b', '', ( #176 ) ) ;
#103 = DIRECTION ( 'NONE',  ( 1.000000000000000000, 0.000000000000000000, -0.000000000000000000 ) ) ;
#104 = ORIENTED_EDGE ( 'NONE', *, *, #7, .F. ) ;
#105 = AXIS2_PLACEMENT_3D ( 'NONE', #21, #167, #38 ) ;
#106 = ORIENTED_EDGE ( 'NONE', *, *, #215, .T. ) ;
#107 = ORIENTED_EDGE ( 'NONE', *, *, #171, .F. ) ;
#108 = DIRECTION ( 'NONE',  ( 1.000000000000000000, 0.000000000000000000, 0.000000000000000000 ) ) ;
#109 = ORIENTED_EDGE ( 'NONE', *, *, #116, .F. ) ;
#110 = DATE_AND_TIME ( #155, #26 ) ;
#111 = VERTEX_POINT ( 'NONE', #30 ) ;
#112 = FACE_OUTER_BOUND ( 'NONE', #279, .T. ) ;
#113 = APPROVAL_DATE_TIME ( #86, #95 ) ;
#114 = APPROVAL_ROLE ( '' ) ;
#115 = CARTESIAN_POINT ( 'NONE',  ( 1.450000000000000178, 0.000000000000000000, 2.199999999999979750 ) ) ;
#116 = EDGE_CURVE ( 'NONE', #73, #25, #89, .T. ) ;
#117 = FACE_OUTER_BOUND ( 'NONE', #199, .T. ) ;
#118 = CARTESIAN_POINT ( 'NONE',  ( 0.000000000000000000, 0.000000000000000000, 2.199999999999979750 ) ) ;
#119 = AXIS2_PLACEMENT_3D ( 'NONE', #242, #91, #193 ) ;
#120 = DIRECTION ( 'NONE',  ( 1.000000000000000000, 0.000000000000000000, 0.000000000000000000 ) ) ;
#121 = PERSON ( 'NEURÈENÝ', 'NEURÈENÝ', 'NEURÈENÝ', ('NEURÈENÝ'), ('NEURÈENÝ'), ('NEURÈENÝ') ) ;
#122 = TOROIDAL_SURFACE ( 'NONE', #119, 1.450000000000000178, 0.2000000000000000111 ) ;
#123 = ORIENTED_EDGE ( 'NONE', *, *, #55, .T. ) ;
#124 = DIRECTION ( 'NONE',  ( -0.000000000000000000, -0.000000000000000000, -1.000000000000000000 ) ) ;
#125 = EDGE_LOOP ( 'NONE', ( #123, #29 ) ) ;
#126 = EDGE_CURVE ( 'NONE', #73, #111, #8, .T. ) ;
#127 = CIRCLE ( 'NONE', #169, 1.250000000000000000 ) ;
#128 = DIRECTION ( 'NONE',  ( 0.000000000000000000, 0.000000000000000000, 1.000000000000000000 ) ) ;
#129 = CARTESIAN_POINT ( 'NONE',  ( 2.500000000000000000, 3.061616997868383141E-16, 2.000000000000000000 ) ) ;
#130 = EDGE_CURVE ( 'NONE', #223, #277, #62, .T. ) ;
#131 = CARTESIAN_POINT ( 'NONE',  ( -2.500000000000000000, 0.000000000000000000, 2.000000000000000000 ) ) ;
#132 = EDGE_LOOP ( 'NONE', ( #295, #173, #200, #28 ) ) ;
#133 = LOCAL_TIME ( 12, 17, 7.000000000000000000, #282 ) ;
#134 = DATE_TIME_ROLE ( 'classification_date' ) ;
#135 = FACE_OUTER_BOUND ( 'NONE', #74, .T. ) ;
#136 = APPROVAL_ROLE ( '' ) ;
#137 = CARTESIAN_POINT ( 'NONE',  ( 0.000000000000000000, 0.000000000000000000, 502.0000000000000000 ) ) ;
#138 = FACE_OUTER_BOUND ( 'NONE', #203, .T. ) ;
#139 = AXIS2_PLACEMENT_3D ( 'NONE', #65, #192, #264 ) ;
#140 = SECURITY_CLASSIFICATION ( '', '', #158 ) ;
#141 = CARTESIAN_POINT ( 'NONE',  ( 0.000000000000000000, 0.000000000000000000, 502.0000000000000000 ) ) ;
#142 = EDGE_CURVE ( 'NONE', #6, #222, #289, .T. ) ;
#143 = PRODUCT_DEFINITION_FORMATION_WITH_SPECIFIED_SOURCE ( 'LIBOVOLNÝ', '', #102, .NOT_KNOWN. ) ;
#144 = CARTESIAN_POINT ( 'NONE',  ( 2.500000000000000000, 3.061616997868383141E-16, 2.000000000000000000 ) ) ;
#145 = ORIENTED_EDGE ( 'NONE', *, *, #130, .F. ) ;
#146 = AXIS2_PLACEMENT_3D ( 'NONE', #137, #66, #18 ) ;
#147 = ORIENTED_EDGE ( 'NONE', *, *, #293, .T. ) ;
#148 = VERTEX_POINT ( 'NONE', #3 ) ;
#149 = APPLICATION_PROTOCOL_DEFINITION ( 'international standard', 'config_control_design', 1994, #257 ) ;
#150 = DIRECTION ( 'NONE',  ( 1.000000000000000000, 0.000000000000000000, 0.000000000000000000 ) ) ;
#151 = AXIS2_PLACEMENT_3D ( 'NONE', #118, #44, #168 ) ;
#152 = CARTESIAN_POINT ( 'NONE',  ( 1.250000000000000000, 1.530808498934191571E-16, 502.0000000000000000 ) ) ;
#153 = EDGE_CURVE ( 'NONE', #277, #148, #196, .T. ) ;
#154 = DIRECTION ( 'NONE',  ( 0.000000000000000000, 0.000000000000000000, 1.000000000000000000 ) ) ;
#155 = CALENDAR_DATE ( 2022, 20, 6 ) ;
#156 = FACE_OUTER_BOUND ( 'NONE', #197, .T. ) ;
#157 = DIRECTION ( 'NONE',  ( 0.000000000000000000, -1.000000000000000000, 0.000000000000000000 ) ) ;
#158 = SECURITY_CLASSIFICATION_LEVEL ( 'unclassified' ) ;
#159 = CARTESIAN_POINT ( 'NONE',  ( 0.000000000000000000, 0.000000000000000000, 0.000000000000000000 ) ) ;
#160 = AXIS2_PLACEMENT_3D ( 'NONE', #208, #128, #224 ) ;
#161 = DIRECTION ( 'NONE',  ( 1.000000000000000000, 0.000000000000000000, 0.000000000000000000 ) ) ;
#162 = ADVANCED_FACE ( 'NONE', ( #292 ), #122, .F. ) ;
#163 = CYLINDRICAL_SURFACE ( 'NONE', #146, 1.250000000000000000 ) ;
#164 = DATE_AND_TIME ( #209, #4 ) ;
#165 = AXIS2_PLACEMENT_3D ( 'NONE', #245, #20, #271 ) ;
#166 = FACE_OUTER_BOUND ( 'NONE', #172, .T. ) ;
#167 = DIRECTION ( 'NONE',  ( 0.000000000000000000, 0.000000000000000000, 1.000000000000000000 ) ) ;
#168 = DIRECTION ( 'NONE',  ( 1.000000000000000000, 0.000000000000000000, 0.000000000000000000 ) ) ;
#169 = AXIS2_PLACEMENT_3D ( 'NONE', #35, #60, #184 ) ;
#170 = FACE_OUTER_BOUND ( 'NONE', #125, .T. ) ;
#171 = EDGE_CURVE ( 'NONE', #25, #73, #290, .T. ) ;
#172 = EDGE_LOOP ( 'NONE', ( #109, #77, #87, #174 ) ) ;
#173 = ORIENTED_EDGE ( 'NONE', *, *, #130, .T. ) ;
#174 = ORIENTED_EDGE ( 'NONE', *, *, #194, .F. ) ;
#175 = EDGE_LOOP ( 'NONE', ( #145, #250, #101, #226 ) ) ;
#176 = MECHANICAL_CONTEXT ( 'NONE', #241, 'mechanical' ) ;
#177 = ORIENTED_EDGE ( 'NONE', *, *, #48, .F. ) ;
#178 = PRODUCT_DEFINITION_SHAPE ( 'NONE', 'NONE',  #249 ) ;
#179 = DIRECTION ( 'NONE',  ( 1.224646799147353207E-16, 1.000000000000000000, -0.000000000000000000 ) ) ;
#180 = CALENDAR_DATE ( 2022, 20, 6 ) ;
#181 = CLOSED_SHELL ( 'NONE', ( #233, #188, #67, #307, #278, #72, #240, #260, #162 ) ) ;
#182 = CC_DESIGN_APPROVAL ( #17, ( #140 ) ) ;
#183 = PERSON_AND_ORGANIZATION_ROLE ( 'design_supplier' ) ;
#184 = DIRECTION ( 'NONE',  ( 1.000000000000000000, 0.000000000000000000, 0.000000000000000000 ) ) ;
#185 = CALENDAR_DATE ( 2022, 20, 6 ) ;
#186 = CARTESIAN_POINT ( 'NONE',  ( 0.000000000000000000, 0.000000000000000000, 2.000000000000000000 ) ) ;
#187 = DIRECTION ( 'NONE',  ( 0.000000000000000000, 0.000000000000000000, -1.000000000000000000 ) ) ;
#188 = ADVANCED_FACE ( 'NONE', ( #166 ), #163, .T. ) ;
#189 = DATE_AND_TIME ( #287, #41 ) ;
#190 = DIRECTION ( 'NONE',  ( 0.000000000000000000, 0.000000000000000000, 1.000000000000000000 ) ) ;
#191 = APPROVAL_STATUS ( 'not_yet_approved' ) ;
#192 = DIRECTION ( 'NONE',  ( -0.000000000000000000, -0.000000000000000000, -1.000000000000000000 ) ) ;
#193 = DIRECTION ( 'NONE',  ( 1.000000000000000000, 0.000000000000000000, 0.000000000000000000 ) ) ;
#194 = EDGE_CURVE ( 'NONE', #25, #223, #92, .T. ) ;
#195 = DIRECTION ( 'NONE',  ( 0.000000000000000000, 0.000000000000000000, 1.000000000000000000 ) ) ;
#196 = CIRCLE ( 'NONE', #139, 1.450000000000000178 ) ;
#197 = EDGE_LOOP ( 'NONE', ( #82, #228, #304, #106 ) ) ;
#198 = ORIENTED_EDGE ( 'NONE', *, *, #215, .F. ) ;
#199 = EDGE_LOOP ( 'NONE', ( #206, #219 ) ) ;
#200 = ORIENTED_EDGE ( 'NONE', *, *, #291, .F. ) ;
#201 = VECTOR ( 'NONE', #31, 1000.000000000000000 ) ;
#202 = CIRCLE ( 'NONE', #64, 2.500000000000000000 ) ;
#203 = EDGE_LOOP ( 'NONE', ( #96, #107, #252, #53 ) ) ;
#204 = CYLINDRICAL_SURFACE ( 'NONE', #274, 2.500000000000000000 ) ;
#205 = LINE ( 'NONE', #131, #34 ) ;
#206 = ORIENTED_EDGE ( 'NONE', *, *, #171, .T. ) ;
#207 = DATE_TIME_ROLE ( 'creation_date' ) ;
#208 = CARTESIAN_POINT ( 'NONE',  ( 0.000000000000000000, 0.000000000000000000, 502.0000000000000000 ) ) ;
#209 = CALENDAR_DATE ( 2022, 20, 6 ) ;
#210 = APPLICATION_PROTOCOL_DEFINITION ( 'international standard', 'config_control_design', 1994, #241 ) ;
#211 = EDGE_LOOP ( 'NONE', ( #61, #221 ) ) ;
#212 = APPROVAL_STATUS ( 'not_yet_approved' ) ;
#213 = CARTESIAN_POINT ( 'NONE',  ( -1.250000000000000000, 0.000000000000000000, 502.0000000000000000 ) ) ;
#214 = ORGANIZATION ( 'NEURÈENÝ', 'NEURÈENÝ', '' ) ;
#215 = EDGE_CURVE ( 'NONE', #22, #47, #202, .T. ) ;
#216 = PLANE ( 'NONE',  #165 ) ;
#217 = DIRECTION ( 'NONE',  ( -1.000000000000000000, 0.000000000000000000, 0.000000000000000000 ) ) ;
#218 = CC_DESIGN_DATE_AND_TIME_ASSIGNMENT ( #110, #207, ( #249 ) ) ;
#219 = ORIENTED_EDGE ( 'NONE', *, *, #116, .T. ) ;
#220 = APPROVAL_PERSON_ORGANIZATION ( #300, #95, #136 ) ;
#221 = ORIENTED_EDGE ( 'NONE', *, *, #153, .T. ) ;
#222 = VERTEX_POINT ( 'NONE', #42 ) ;
#223 = VERTEX_POINT ( 'NONE', #71 ) ;
#224 = DIRECTION ( 'NONE',  ( 1.000000000000000000, 0.000000000000000000, 0.000000000000000000 ) ) ;
#225 = PRODUCT_RELATED_PRODUCT_CATEGORY ( 'detail', '', ( #102 ) ) ;
#226 = ORIENTED_EDGE ( 'NONE', *, *, #153, .F. ) ;
#227 = PERSON_AND_ORGANIZATION ( #121, #214 ) ;
#228 = ORIENTED_EDGE ( 'NONE', *, *, #55, .F. ) ;
#229 = PERSON_AND_ORGANIZATION_ROLE ( 'creator' ) ;
#230 = AXIS2_PLACEMENT_3D ( 'NONE', #115, #157, #187 ) ;
#231 = CC_DESIGN_APPROVAL ( #298, ( #249 ) ) ;
#232 =( GEOMETRIC_REPRESENTATION_CONTEXT ( 3 ) GLOBAL_UNCERTAINTY_ASSIGNED_CONTEXT ( ( #239 ) ) GLOBAL_UNIT_ASSIGNED_CONTEXT ( ( #235, #32, #80 ) ) REPRESENTATION_CONTEXT ( 'NONE', 'WORKASPACE' ) );
#233 = ADVANCED_FACE ( 'NONE', ( #266 ), #246, .F. ) ;
#234 = CARTESIAN_POINT ( 'NONE',  ( -1.250000000000000000, 0.000000000000000000, 502.0000000000000000 ) ) ;
#235 =( LENGTH_UNIT ( ) NAMED_UNIT ( * ) SI_UNIT ( .MILLI., .METRE. ) );
#236 = CARTESIAN_POINT ( 'NONE',  ( -2.500000000000000000, 0.000000000000000000, 0.000000000000000000 ) ) ;
#237 = DATE_AND_TIME ( #185, #133 ) ;
#238 = MANIFOLD_SOLID_BREP ( 'Zaoblit1', #181 ) ;
#239 = UNCERTAINTY_MEASURE_WITH_UNIT (LENGTH_MEASURE( 1.000000000000000082E-05 ), #235, 'distance_accuracy_value', 'NONE');
#240 = ADVANCED_FACE ( 'NONE', ( #138 ), #43, .T. ) ;
#241 = APPLICATION_CONTEXT ( 'configuration controlled 3d designs of mechanical parts and assemblies' ) ;
#242 = CARTESIAN_POINT ( 'NONE',  ( 0.000000000000000000, 0.000000000000000000, 2.199999999999979750 ) ) ;
#243 = AXIS2_PLACEMENT_3D ( 'NONE', #141, #244, #217 ) ;
#244 = DIRECTION ( 'NONE',  ( -0.000000000000000000, -0.000000000000000000, -1.000000000000000000 ) ) ;
#245 = CARTESIAN_POINT ( 'NONE',  ( 0.000000000000000000, 0.000000000000000000, 502.0000000000000000 ) ) ;
#246 = TOROIDAL_SURFACE ( 'NONE', #105, 1.450000000000000178, 0.2000000000000000111 ) ;
#247 = APPROVAL_PERSON_ORGANIZATION ( #88, #298, #114 ) ;
#248 = DIRECTION ( 'NONE',  ( -0.000000000000000000, -0.000000000000000000, -1.000000000000000000 ) ) ;
#249 = PRODUCT_DEFINITION ( 'NEZNÁMÝ', '', #143, #2 ) ;
#250 = ORIENTED_EDGE ( 'NONE', *, *, #275, .F. ) ;
#251 = CARTESIAN_POINT ( 'NONE',  ( 0.000000000000000000, 0.000000000000000000, 2.000000000000000000 ) ) ;
#252 = ORIENTED_EDGE ( 'NONE', *, *, #194, .T. ) ;
#253 = CARTESIAN_POINT ( 'NONE',  ( 0.000000000000000000, 0.000000000000000000, 0.000000000000000000 ) ) ;
#254 = CC_DESIGN_PERSON_AND_ORGANIZATION_ASSIGNMENT ( #265, #183, ( #143 ) ) ;
#255 = CIRCLE ( 'NONE', #39, 2.500000000000000000 ) ;
#256 = CARTESIAN_POINT ( 'NONE',  ( 0.000000000000000000, 0.000000000000000000, 2.000000000000000000 ) ) ;
#257 = APPLICATION_CONTEXT ( 'configuration controlled 3d designs of mechanical parts and assemblies' ) ;
#258 = CARTESIAN_POINT ( 'NONE',  ( 1.250000000000000000, 1.530808498934191571E-16, 502.0000000000000000 ) ) ;
#259 = SHAPE_DEFINITION_REPRESENTATION ( #178, #33 ) ;
#260 = ADVANCED_FACE ( 'NONE', ( #117 ), #216, .T. ) ;
#261 = DIRECTION ( 'NONE',  ( -1.000000000000000000, 0.000000000000000000, 0.000000000000000000 ) ) ;
#262 = CARTESIAN_POINT ( 'NONE',  ( 0.000000000000000000, 0.000000000000000000, 2.000000000000000000 ) ) ;
#263 = PERSON_AND_ORGANIZATION_ROLE ( 'creator' ) ;
#264 = DIRECTION ( 'NONE',  ( 1.000000000000000000, 0.000000000000000000, 0.000000000000000000 ) ) ;
#265 = PERSON_AND_ORGANIZATION ( #121, #214 ) ;
#266 = FACE_OUTER_BOUND ( 'NONE', #132, .T. ) ;
#267 = AXIS2_PLACEMENT_3D ( 'NONE', #262, #299, #284 ) ;
#268 = DIRECTION ( 'NONE',  ( -0.000000000000000000, -0.000000000000000000, -1.000000000000000000 ) ) ;
#269 = CC_DESIGN_SECURITY_CLASSIFICATION ( #140, ( #143 ) ) ;
#270 = CC_DESIGN_PERSON_AND_ORGANIZATION_ASSIGNMENT ( #15, #296, ( #102 ) ) ;
#271 = DIRECTION ( 'NONE',  ( 1.000000000000000000, 0.000000000000000000, -0.000000000000000000 ) ) ;
#272 = AXIS2_PLACEMENT_3D ( 'NONE', #79, #179, #54 ) ;
#273 = DIRECTION ( 'NONE',  ( 1.000000000000000000, 0.000000000000000000, 0.000000000000000000 ) ) ;
#274 = AXIS2_PLACEMENT_3D ( 'NONE', #186, #78, #261 ) ;
#275 = EDGE_CURVE ( 'NONE', #111, #223, #98, .T. ) ;
#276 = LOCAL_TIME ( 12, 17, 7.000000000000000000, #84 ) ;
#277 = VERTEX_POINT ( 'NONE', #46 ) ;
#278 = ADVANCED_FACE ( 'NONE', ( #99, #170 ), #76, .T. ) ;
#279 = EDGE_LOOP ( 'NONE', ( #198, #177 ) ) ;
#280 = CARTESIAN_POINT ( 'NONE',  ( 0.000000000000000000, 0.000000000000000000, 0.000000000000000000 ) ) ;
#281 = CARTESIAN_POINT ( 'NONE',  ( 2.500000000000000000, 3.061616997868383141E-16, 0.000000000000000000 ) ) ;
#282 = COORDINATED_UNIVERSAL_TIME_OFFSET ( 1, 0, .AHEAD. ) ;
#283 = CC_DESIGN_DATE_AND_TIME_ASSIGNMENT ( #164, #134, ( #140 ) ) ;
#284 = DIRECTION ( 'NONE',  ( -1.000000000000000000, 0.000000000000000000, 0.000000000000000000 ) ) ;
#285 = PERSON_AND_ORGANIZATION_ROLE ( 'classification_officer' ) ;
#286 = COORDINATED_UNIVERSAL_TIME_OFFSET ( 1, 0, .AHEAD. ) ;
#287 = CALENDAR_DATE ( 2022, 20, 6 ) ;
#288 = DIRECTION ( 'NONE',  ( 0.000000000000000000, 0.000000000000000000, 1.000000000000000000 ) ) ;
#289 = CIRCLE ( 'NONE', #49, 2.500000000000000000 ) ;
#290 = CIRCLE ( 'NONE', #301, 1.250000000000000000 ) ;
#291 = EDGE_CURVE ( 'NONE', #148, #277, #70, .T. ) ;
#292 = FACE_OUTER_BOUND ( 'NONE', #175, .T. ) ;
#293 = EDGE_CURVE ( 'NONE', #6, #47, #45, .T. ) ;
#294 = VECTOR ( 'NONE', #248, 1000.000000000000000 ) ;
#295 = ORIENTED_EDGE ( 'NONE', *, *, #40, .F. ) ;
#296 = PERSON_AND_ORGANIZATION_ROLE ( 'design_owner' ) ;
#297 = DIRECTION ( 'NONE',  ( 0.000000000000000000, 0.000000000000000000, 1.000000000000000000 ) ) ;
#298 = APPROVAL ( #212, 'NEURÈENÝ' ) ;
#299 = DIRECTION ( 'NONE',  ( -0.000000000000000000, -0.000000000000000000, -1.000000000000000000 ) ) ;
#300 = PERSON_AND_ORGANIZATION ( #121, #214 ) ;
#301 = AXIS2_PLACEMENT_3D ( 'NONE', #94, #288, #68 ) ;
#302 = DIRECTION ( 'NONE',  ( 0.000000000000000000, 0.000000000000000000, 1.000000000000000000 ) ) ;
#303 = APPROVAL_DATE_TIME ( #189, #298 ) ;
#304 = ORIENTED_EDGE ( 'NONE', *, *, #7, .T. ) ;
#305 = COORDINATED_UNIVERSAL_TIME_OFFSET ( 1, 0, .AHEAD. ) ;
#306 = DIRECTION ( 'NONE',  ( -0.000000000000000000, -0.000000000000000000, -1.000000000000000000 ) ) ;
#307 = ADVANCED_FACE ( 'NONE', ( #156 ), #204, .T. ) ;
ENDSEC;
END-ISO-10303-21;
