ISO-10303-21;
HEADER;
FILE_DESCRIPTION (( 'STEP AP203' ),
    '1' );
FILE_NAME ('7112.STEP',
    '2022-06-20T09:40:41',
    ( '' ),
    ( '' ),
    'SwSTEP 2.0',
    'SolidWorks 2019',
    '' );
FILE_SCHEMA (( 'CONFIG_CONTROL_DESIGN' ));
ENDSEC;

DATA;
#1 = EDGE_LOOP ( 'NONE', ( #194, #241 ) ) ;
#2 = APPLICATION_CONTEXT ( 'configuration controlled 3d designs of mechanical parts and assemblies' ) ;
#3 = SHAPE_DEFINITION_REPRESENTATION ( #208, #255 ) ;
#4 = ORIENTED_EDGE ( 'NONE', *, *, #81, .F. ) ;
#5 = SECURITY_CLASSIFICATION ( '', '', #217 ) ;
#6 = CC_DESIGN_PERSON_AND_ORGANIZATION_ASSIGNMENT ( #307, #188, ( #282 ) ) ;
#7 = PLANE ( 'NONE',  #216 ) ;
#8 = VERTEX_POINT ( 'NONE', #266 ) ;
#9 = APPROVAL_PERSON_ORGANIZATION ( #48, #32, #205 ) ;
#10 = CARTESIAN_POINT ( 'NONE',  ( 0.000000000000000000, 0.000000000000000000, 5.000000000000000000 ) ) ;
#11 = CARTESIAN_POINT ( 'NONE',  ( -8.000000000000000000, 0.000000000000000000, 5.000000000000000000 ) ) ;
#12 = VECTOR ( 'NONE', #223, 1000.000000000000000 ) ;
#13 = DIRECTION ( 'NONE',  ( 0.000000000000000000, 0.000000000000000000, 1.000000000000000000 ) ) ;
#14 = CIRCLE ( 'NONE', #49, 5.200000000000001066 ) ;
#15 = DIRECTION ( 'NONE',  ( 1.000000000000000000, 0.000000000000000000, 0.000000000000000000 ) ) ;
#16 = EDGE_CURVE ( 'NONE', #222, #110, #19, .T. ) ;
#17 = CARTESIAN_POINT ( 'NONE',  ( 0.000000000000000000, 0.000000000000000000, 5.000000000000000000 ) ) ;
#18 = APPROVAL_STATUS ( 'not_yet_approved' ) ;
#19 = CIRCLE ( 'NONE', #274, 0.1999999999999996503 ) ;
#20 = EDGE_LOOP ( 'NONE', ( #139, #33, #215, #174 ) ) ;
#21 = CC_DESIGN_DATE_AND_TIME_ASSIGNMENT ( #260, #193, ( #5 ) ) ;
#22 = AXIS2_PLACEMENT_3D ( 'NONE', #297, #79, #175 ) ;
#23 = CARTESIAN_POINT ( 'NONE',  ( -5.000000000000000888, 0.000000000000000000, 5.199999999999982414 ) ) ;
#24 = DIRECTION ( 'NONE',  ( -0.000000000000000000, -0.000000000000000000, -1.000000000000000000 ) ) ;
#25 = CIRCLE ( 'NONE', #228, 5.000000000000000888 ) ;
#26 = COORDINATED_UNIVERSAL_TIME_OFFSET ( 1, 0, .AHEAD. ) ;
#27 = ORIENTED_EDGE ( 'NONE', *, *, #269, .F. ) ;
#28 = CIRCLE ( 'NONE', #22, 5.200000000000001066 ) ;
#29 = EDGE_LOOP ( 'NONE', ( #170, #95 ) ) ;
#30 = ORIENTED_EDGE ( 'NONE', *, *, #134, .T. ) ;
#31 = CC_DESIGN_PERSON_AND_ORGANIZATION_ASSIGNMENT ( #34, #190, ( #5 ) ) ;
#32 = APPROVAL ( #18, 'NEURÈENÝ' ) ;
#33 = ORIENTED_EDGE ( 'NONE', *, *, #40, .F. ) ;
#34 = PERSON_AND_ORGANIZATION ( #127, #138 ) ;
#35 = ORIENTED_EDGE ( 'NONE', *, *, #81, .T. ) ;
#36 = CARTESIAN_POINT ( 'NONE',  ( 0.000000000000000000, 0.000000000000000000, 5.000000000000000000 ) ) ;
#37 = CC_DESIGN_SECURITY_CLASSIFICATION ( #5, ( #65 ) ) ;
#38 = CARTESIAN_POINT ( 'NONE',  ( -8.000000000000000000, 0.000000000000000000, 0.000000000000000000 ) ) ;
#39 = CARTESIAN_POINT ( 'NONE',  ( 0.000000000000000000, 0.000000000000000000, 5.000000000000000000 ) ) ;
#40 = EDGE_CURVE ( 'NONE', #8, #206, #25, .T. ) ;
#41 = DIRECTION ( 'NONE',  ( -1.000000000000000000, 1.224646799147353454E-16, 0.000000000000000000 ) ) ;
#42 = DIRECTION ( 'NONE',  ( -0.000000000000000000, -0.000000000000000000, -1.000000000000000000 ) ) ;
#43 = PERSON_AND_ORGANIZATION ( #127, #138 ) ;
#44 = ADVANCED_FACE ( 'NONE', ( #243, #218 ), #7, .T. ) ;
#45 = CARTESIAN_POINT ( 'NONE',  ( 8.000000000000000000, 9.797174393178825657E-16, 0.000000000000000000 ) ) ;
#46 = CC_DESIGN_APPROVAL ( #203, ( #5 ) ) ;
#47 = DIRECTION ( 'NONE',  ( -0.000000000000000000, -0.000000000000000000, -1.000000000000000000 ) ) ;
#48 = PERSON_AND_ORGANIZATION ( #127, #138 ) ;
#49 = AXIS2_PLACEMENT_3D ( 'NONE', #187, #24, #285 ) ;
#50 = ORIENTED_EDGE ( 'NONE', *, *, #225, .F. ) ;
#51 = ADVANCED_FACE ( 'NONE', ( #294 ), #76, .F. ) ;
#52 = EDGE_LOOP ( 'NONE', ( #68, #304 ) ) ;
#53 = APPROVAL_DATE_TIME ( #74, #203 ) ;
#54 = CARTESIAN_POINT ( 'NONE',  ( 5.200000000000001066, 0.000000000000000000, 5.199999999999982414 ) ) ;
#55 = AXIS2_PLACEMENT_3D ( 'NONE', #209, #207, #303 ) ;
#56 = APPROVAL_ROLE ( '' ) ;
#57 = CARTESIAN_POINT ( 'NONE',  ( 0.000000000000000000, 0.000000000000000000, 5.000000000000000000 ) ) ;
#58 = DIRECTION ( 'NONE',  ( -1.000000000000000000, 0.000000000000000000, 0.000000000000000000 ) ) ;
#59 = CARTESIAN_POINT ( 'NONE',  ( 0.000000000000000000, 0.000000000000000000, 5.199999999999982414 ) ) ;
#60 = ADVANCED_FACE ( 'NONE', ( #173 ), #191, .F. ) ;
#61 = CYLINDRICAL_SURFACE ( 'NONE', #142, 5.000000000000000888 ) ;
#62 = DIRECTION ( 'NONE',  ( -0.000000000000000000, -0.000000000000000000, -1.000000000000000000 ) ) ;
#63 = COORDINATED_UNIVERSAL_TIME_OFFSET ( 1, 0, .AHEAD. ) ;
#64 = DIRECTION ( 'NONE',  ( 1.000000000000000000, 0.000000000000000000, 0.000000000000000000 ) ) ;
#65 = PRODUCT_DEFINITION_FORMATION_WITH_SPECIFIED_SOURCE ( 'LIBOVOLNÝ', '', #154, .NOT_KNOWN. ) ;
#66 = LINE ( 'NONE', #280, #302 ) ;
#67 = PLANE ( 'NONE',  #202 ) ;
#68 = ORIENTED_EDGE ( 'NONE', *, *, #225, .T. ) ;
#69 = ORIENTED_EDGE ( 'NONE', *, *, #102, .F. ) ;
#70 = PRODUCT_RELATED_PRODUCT_CATEGORY ( 'detail', '', ( #154 ) ) ;
#71 = PERSON_AND_ORGANIZATION ( #127, #138 ) ;
#72 = CARTESIAN_POINT ( 'NONE',  ( 0.000000000000000000, 0.000000000000000000, 5.199999999999982414 ) ) ;
#73 = EDGE_LOOP ( 'NONE', ( #98, #219, #221, #69 ) ) ;
#74 = DATE_AND_TIME ( #119, #242 ) ;
#75 = VERTEX_POINT ( 'NONE', #38 ) ;
#76 = TOROIDAL_SURFACE ( 'NONE', #91, 5.200000000000001066, 0.2000000000000000111 ) ;
#77 = DIRECTION ( 'NONE',  ( 1.000000000000000000, 0.000000000000000000, 0.000000000000000000 ) ) ;
#78 = ORIENTED_EDGE ( 'NONE', *, *, #293, .F. ) ;
#79 = DIRECTION ( 'NONE',  ( -0.000000000000000000, -0.000000000000000000, -1.000000000000000000 ) ) ;
#80 = CIRCLE ( 'NONE', #118, 0.1999999999999996503 ) ;
#81 = EDGE_CURVE ( 'NONE', #240, #235, #80, .T. ) ;
#82 = DIRECTION ( 'NONE',  ( 1.000000000000000000, 0.000000000000000000, -0.000000000000000000 ) ) ;
#83 = EDGE_CURVE ( 'NONE', #210, #263, #298, .T. ) ;
#84 = CIRCLE ( 'NONE', #197, 8.000000000000000000 ) ;
#85 = CARTESIAN_POINT ( 'NONE',  ( 5.200000000000001066, 0.000000000000000000, 4.999999999999991118 ) ) ;
#86 = FACE_OUTER_BOUND ( 'NONE', #73, .T. ) ;
#87 = CARTESIAN_POINT ( 'NONE',  ( 0.000000000000000000, 0.000000000000000000, 0.000000000000000000 ) ) ;
#88 = LOCAL_TIME ( 11, 40, 41.00000000000000000, #244 ) ;
#89 = APPROVAL_STATUS ( 'not_yet_approved' ) ;
#90 = PERSON_AND_ORGANIZATION_ROLE ( 'design_owner' ) ;
#91 = AXIS2_PLACEMENT_3D ( 'NONE', #72, #165, #77 ) ;
#92 = DIRECTION ( 'NONE',  ( 0.000000000000000000, 0.000000000000000000, 1.000000000000000000 ) ) ;
#93 =( NAMED_UNIT ( * ) SI_UNIT ( $, .STERADIAN. ) SOLID_ANGLE_UNIT ( ) );
#94 = UNCERTAINTY_MEASURE_WITH_UNIT (LENGTH_MEASURE( 1.000000000000000082E-05 ), #256, 'distance_accuracy_value', 'NONE');
#95 = ORIENTED_EDGE ( 'NONE', *, *, #226, .T. ) ;
#96 = APPROVAL_PERSON_ORGANIZATION ( #43, #168, #56 ) ;
#97 = VERTEX_POINT ( 'NONE', #108 ) ;
#98 = ORIENTED_EDGE ( 'NONE', *, *, #147, .F. ) ;
#99 = DIRECTION ( 'NONE',  ( 1.000000000000000000, 0.000000000000000000, -0.000000000000000000 ) ) ;
#100 = EDGE_LOOP ( 'NONE', ( #4, #27, #163, #145 ) ) ;
#101 = LINE ( 'NONE', #278, #12 ) ;
#102 = EDGE_CURVE ( 'NONE', #8, #240, #101, .T. ) ;
#103 = ADVANCED_FACE ( 'NONE', ( #86 ), #107, .T. ) ;
#104 = CARTESIAN_POINT ( 'NONE',  ( 5.000000000000000888, 6.123233995736767268E-16, 505.0000000000000000 ) ) ;
#105 = AXIS2_PLACEMENT_3D ( 'NONE', #150, #126, #82 ) ;
#106 = DIRECTION ( 'NONE',  ( 0.000000000000000000, 0.000000000000000000, 1.000000000000000000 ) ) ;
#107 = CYLINDRICAL_SURFACE ( 'NONE', #264, 5.000000000000000888 ) ;
#108 = CARTESIAN_POINT ( 'NONE',  ( -8.000000000000000000, 0.000000000000000000, 5.000000000000000000 ) ) ;
#109 = CALENDAR_DATE ( 2022, 20, 6 ) ;
#110 = VERTEX_POINT ( 'NONE', #85 ) ;
#111 = CARTESIAN_POINT ( 'NONE',  ( 0.000000000000000000, 0.000000000000000000, 5.199999999999982414 ) ) ;
#112 = ADVANCED_FACE ( 'NONE', ( #276 ), #185, .F. ) ;
#113 = DIRECTION ( 'NONE',  ( 1.000000000000000000, 0.000000000000000000, -0.000000000000000000 ) ) ;
#114 = CIRCLE ( 'NONE', #295, 8.000000000000000000 ) ;
#115 = APPROVAL_DATE_TIME ( #137, #32 ) ;
#116 = DIRECTION ( 'NONE',  ( 0.000000000000000000, 0.000000000000000000, 1.000000000000000000 ) ) ;
#117 = CARTESIAN_POINT ( 'NONE',  ( 0.000000000000000000, 0.000000000000000000, 505.0000000000000000 ) ) ;
#118 = AXIS2_PLACEMENT_3D ( 'NONE', #300, #131, #41 ) ;
#119 = CALENDAR_DATE ( 2022, 20, 6 ) ;
#120 = AXIS2_PLACEMENT_3D ( 'NONE', #111, #136, #237 ) ;
#121 = ORIENTED_EDGE ( 'NONE', *, *, #16, .F. ) ;
#122 = COORDINATED_UNIVERSAL_TIME_OFFSET ( 1, 0, .AHEAD. ) ;
#123 = ADVANCED_FACE ( 'NONE', ( #146 ), #204, .T. ) ;
#124 = EDGE_LOOP ( 'NONE', ( #140, #289 ) ) ;
#125 = DIRECTION ( 'NONE',  ( 0.000000000000000000, 0.000000000000000000, 1.000000000000000000 ) ) ;
#126 = DIRECTION ( 'NONE',  ( 0.000000000000000000, 0.000000000000000000, 1.000000000000000000 ) ) ;
#127 = PERSON ( 'NEURÈENÝ', 'NEURÈENÝ', 'NEURÈENÝ', ('NEURÈENÝ'), ('NEURÈENÝ'), ('NEURÈENÝ') ) ;
#128 = DIRECTION ( 'NONE',  ( -0.000000000000000000, -0.000000000000000000, -1.000000000000000000 ) ) ;
#129 = AXIS2_PLACEMENT_3D ( 'NONE', #59, #106, #277 ) ;
#130 = FACE_OUTER_BOUND ( 'NONE', #195, .T. ) ;
#131 = DIRECTION ( 'NONE',  ( 1.224646799147353207E-16, 1.000000000000000000, -0.000000000000000000 ) ) ;
#132 = ADVANCED_FACE ( 'NONE', ( #130 ), #301, .T. ) ;
#133 = LOCAL_TIME ( 11, 40, 41.00000000000000000, #122 ) ;
#134 = EDGE_CURVE ( 'NONE', #75, #263, #284, .T. ) ;
#135 = EDGE_LOOP ( 'NONE', ( #292, #50, #198, #30 ) ) ;
#136 = DIRECTION ( 'NONE',  ( 0.000000000000000000, 0.000000000000000000, 1.000000000000000000 ) ) ;
#137 = DATE_AND_TIME ( #231, #149 ) ;
#138 = ORGANIZATION ( 'NEURÈENÝ', 'NEURÈENÝ', '' ) ;
#139 = ORIENTED_EDGE ( 'NONE', *, *, #258, .F. ) ;
#140 = ORIENTED_EDGE ( 'NONE', *, *, #134, .F. ) ;
#141 = CLOSED_SHELL ( 'NONE', ( #51, #103, #132, #123, #44, #60, #152, #281, #112 ) ) ;
#142 = AXIS2_PLACEMENT_3D ( 'NONE', #151, #62, #58 ) ;
#143 = DIRECTION ( 'NONE',  ( 1.000000000000000000, 0.000000000000000000, 0.000000000000000000 ) ) ;
#144 = DATE_AND_TIME ( #270, #133 ) ;
#145 = ORIENTED_EDGE ( 'NONE', *, *, #226, .F. ) ;
#146 = FACE_OUTER_BOUND ( 'NONE', #135, .T. ) ;
#147 = EDGE_CURVE ( 'NONE', #206, #8, #306, .T. ) ;
#148 = FACE_OUTER_BOUND ( 'NONE', #20, .T. ) ;
#149 = LOCAL_TIME ( 11, 40, 41.00000000000000000, #26 ) ;
#150 = CARTESIAN_POINT ( 'NONE',  ( 0.000000000000000000, 0.000000000000000000, 0.000000000000000000 ) ) ;
#151 = CARTESIAN_POINT ( 'NONE',  ( 0.000000000000000000, 0.000000000000000000, 505.0000000000000000 ) ) ;
#152 = ADVANCED_FACE ( 'NONE', ( #148 ), #61, .T. ) ;
#153 = DIRECTION ( 'NONE',  ( 1.000000000000000000, 0.000000000000000000, 0.000000000000000000 ) ) ;
#154 = PRODUCT ( '7112', '7112', '', ( #305 ) ) ;
#155 = DATE_AND_TIME ( #109, #262 ) ;
#156 = EDGE_CURVE ( 'NONE', #210, #97, #211, .T. ) ;
#157 = ORIENTED_EDGE ( 'NONE', *, *, #156, .F. ) ;
#158 = VECTOR ( 'NONE', #42, 1000.000000000000000 ) ;
#159 = FACE_OUTER_BOUND ( 'NONE', #1, .T. ) ;
#160 = APPLICATION_PROTOCOL_DEFINITION ( 'international standard', 'config_control_design', 1994, #290 ) ;
#161 = PERSON_AND_ORGANIZATION ( #127, #138 ) ;
#162 = DESIGN_CONTEXT ( 'detailed design', #290, 'design' ) ;
#163 = ORIENTED_EDGE ( 'NONE', *, *, #16, .T. ) ;
#164 = CIRCLE ( 'NONE', #120, 5.000000000000000888 ) ;
#165 = DIRECTION ( 'NONE',  ( 0.000000000000000000, 0.000000000000000000, 1.000000000000000000 ) ) ;
#166 = ORIENTED_EDGE ( 'NONE', *, *, #167, .T. ) ;
#167 = EDGE_CURVE ( 'NONE', #263, #75, #84, .T. ) ;
#168 = APPROVAL ( #89, 'NEURÈENÝ' ) ;
#169 = APPROVAL_DATE_TIME ( #144, #168 ) ;
#170 = ORIENTED_EDGE ( 'NONE', *, *, #249, .T. ) ;
#171 = APPROVAL_ROLE ( '' ) ;
#172 = AXIS2_PLACEMENT_3D ( 'NONE', #201, #299, #224 ) ;
#173 = FACE_OUTER_BOUND ( 'NONE', #124, .T. ) ;
#174 = ORIENTED_EDGE ( 'NONE', *, *, #293, .T. ) ;
#175 = DIRECTION ( 'NONE',  ( 1.000000000000000000, 0.000000000000000000, 0.000000000000000000 ) ) ;
#176 = CARTESIAN_POINT ( 'NONE',  ( 5.000000000000000888, 6.123233995736767268E-16, 5.199999999999982414 ) ) ;
#177 = APPROVAL_PERSON_ORGANIZATION ( #71, #203, #171 ) ;
#178 = DIRECTION ( 'NONE',  ( -1.000000000000000000, 0.000000000000000000, 0.000000000000000000 ) ) ;
#179 = CC_DESIGN_PERSON_AND_ORGANIZATION_ASSIGNMENT ( #161, #291, ( #65 ) ) ;
#180 = DIRECTION ( 'NONE',  ( -1.000000000000000000, 0.000000000000000000, 0.000000000000000000 ) ) ;
#181 = DIRECTION ( 'NONE',  ( -0.000000000000000000, -0.000000000000000000, -1.000000000000000000 ) ) ;
#182 = CC_DESIGN_APPROVAL ( #32, ( #282 ) ) ;
#183 = CARTESIAN_POINT ( 'NONE',  ( -5.200000000000001066, 6.368163355566237368E-16, 4.999999999999991118 ) ) ;
#184 = CARTESIAN_POINT ( 'NONE',  ( 0.000000000000000000, 0.000000000000000000, 5.199999999999982414 ) ) ;
#185 = TOROIDAL_SURFACE ( 'NONE', #129, 5.200000000000001066, 0.2000000000000000111 ) ;
#186 = AXIS2_PLACEMENT_3D ( 'NONE', #184, #92, #64 ) ;
#187 = CARTESIAN_POINT ( 'NONE',  ( 0.000000000000000000, 0.000000000000000000, 5.000000000000000000 ) ) ;
#188 = PERSON_AND_ORGANIZATION_ROLE ( 'creator' ) ;
#189 = ORIENTED_EDGE ( 'NONE', *, *, #192, .F. ) ;
#190 = PERSON_AND_ORGANIZATION_ROLE ( 'classification_officer' ) ;
#191 = PLANE ( 'NONE',  #105 ) ;
#192 = EDGE_CURVE ( 'NONE', #97, #75, #252, .T. ) ;
#193 = DATE_TIME_ROLE ( 'classification_date' ) ;
#194 = ORIENTED_EDGE ( 'NONE', *, *, #40, .T. ) ;
#195 = EDGE_LOOP ( 'NONE', ( #157, #213, #166, #189 ) ) ;
#196 = DIRECTION ( 'NONE',  ( 0.000000000000000000, 0.000000000000000000, -1.000000000000000000 ) ) ;
#197 = AXIS2_PLACEMENT_3D ( 'NONE', #87, #246, #153 ) ;
#198 = ORIENTED_EDGE ( 'NONE', *, *, #192, .T. ) ;
#199 = DIRECTION ( 'NONE',  ( 1.000000000000000000, 0.000000000000000000, 0.000000000000000000 ) ) ;
#200 = DIRECTION ( 'NONE',  ( 1.000000000000000000, 0.000000000000000000, 0.000000000000000000 ) ) ;
#201 = CARTESIAN_POINT ( 'NONE',  ( 0.000000000000000000, 0.000000000000000000, 505.0000000000000000 ) ) ;
#202 = AXIS2_PLACEMENT_3D ( 'NONE', #232, #212, #113 ) ;
#203 = APPROVAL ( #220, 'NEURÈENÝ' ) ;
#204 = CYLINDRICAL_SURFACE ( 'NONE', #267, 8.000000000000000000 ) ;
#205 = APPROVAL_ROLE ( '' ) ;
#206 = VERTEX_POINT ( 'NONE', #104 ) ;
#207 = DIRECTION ( 'NONE',  ( 0.000000000000000000, 0.000000000000000000, 1.000000000000000000 ) ) ;
#208 = PRODUCT_DEFINITION_SHAPE ( 'NONE', 'NONE',  #282 ) ;
#209 = CARTESIAN_POINT ( 'NONE',  ( 0.000000000000000000, 0.000000000000000000, 0.000000000000000000 ) ) ;
#210 = VERTEX_POINT ( 'NONE', #279 ) ;
#211 = CIRCLE ( 'NONE', #238, 8.000000000000000000 ) ;
#212 = DIRECTION ( 'NONE',  ( 0.000000000000000000, 0.000000000000000000, 1.000000000000000000 ) ) ;
#213 = ORIENTED_EDGE ( 'NONE', *, *, #83, .T. ) ;
#214 = PERSON_AND_ORGANIZATION ( #127, #138 ) ;
#215 = ORIENTED_EDGE ( 'NONE', *, *, #102, .T. ) ;
#216 = AXIS2_PLACEMENT_3D ( 'NONE', #57, #116, #99 ) ;
#217 = SECURITY_CLASSIFICATION_LEVEL ( 'unclassified' ) ;
#218 = FACE_OUTER_BOUND ( 'NONE', #52, .T. ) ;
#219 = ORIENTED_EDGE ( 'NONE', *, *, #258, .T. ) ;
#220 = APPROVAL_STATUS ( 'not_yet_approved' ) ;
#221 = ORIENTED_EDGE ( 'NONE', *, *, #269, .T. ) ;
#222 = VERTEX_POINT ( 'NONE', #176 ) ;
#223 = DIRECTION ( 'NONE',  ( -0.000000000000000000, -0.000000000000000000, -1.000000000000000000 ) ) ;
#224 = DIRECTION ( 'NONE',  ( 1.000000000000000000, 0.000000000000000000, 0.000000000000000000 ) ) ;
#225 = EDGE_CURVE ( 'NONE', #97, #210, #114, .T. ) ;
#226 = EDGE_CURVE ( 'NONE', #235, #110, #28, .T. ) ;
#227 = DIRECTION ( 'NONE',  ( -1.000000000000000000, 0.000000000000000000, 0.000000000000000000 ) ) ;
#228 = AXIS2_PLACEMENT_3D ( 'NONE', #117, #273, #143 ) ;
#229 = CARTESIAN_POINT ( 'NONE',  ( 0.000000000000000000, 0.000000000000000000, 0.000000000000000000 ) ) ;
#230 = DIRECTION ( 'NONE',  ( -0.000000000000000000, -0.000000000000000000, -1.000000000000000000 ) ) ;
#231 = CALENDAR_DATE ( 2022, 20, 6 ) ;
#232 = CARTESIAN_POINT ( 'NONE',  ( 0.000000000000000000, 0.000000000000000000, 505.0000000000000000 ) ) ;
#233 = CC_DESIGN_APPROVAL ( #168, ( #65 ) ) ;
#234 = APPLICATION_PROTOCOL_DEFINITION ( 'international standard', 'config_control_design', 1994, #2 ) ;
#235 = VERTEX_POINT ( 'NONE', #183 ) ;
#236 = CC_DESIGN_PERSON_AND_ORGANIZATION_ASSIGNMENT ( #283, #90, ( #154 ) ) ;
#237 = DIRECTION ( 'NONE',  ( 1.000000000000000000, 0.000000000000000000, 0.000000000000000000 ) ) ;
#238 = AXIS2_PLACEMENT_3D ( 'NONE', #17, #251, #15 ) ;
#239 = CC_DESIGN_DATE_AND_TIME_ASSIGNMENT ( #155, #254, ( #282 ) ) ;
#240 = VERTEX_POINT ( 'NONE', #23 ) ;
#241 = ORIENTED_EDGE ( 'NONE', *, *, #147, .T. ) ;
#242 = LOCAL_TIME ( 11, 40, 41.00000000000000000, #265 ) ;
#243 = FACE_BOUND ( 'NONE', #29, .T. ) ;
#244 = COORDINATED_UNIVERSAL_TIME_OFFSET ( 1, 0, .AHEAD. ) ;
#245 = DIRECTION ( 'NONE',  ( 0.000000000000000000, -1.000000000000000000, 0.000000000000000000 ) ) ;
#246 = DIRECTION ( 'NONE',  ( 0.000000000000000000, 0.000000000000000000, 1.000000000000000000 ) ) ;
#247 = AXIS2_PLACEMENT_3D ( 'NONE', #39, #128, #227 ) ;
#248 = CARTESIAN_POINT ( 'NONE',  ( 8.000000000000000000, 9.797174393178825657E-16, 5.000000000000000000 ) ) ;
#249 = EDGE_CURVE ( 'NONE', #110, #235, #14, .T. ) ;
#250 = DIRECTION ( 'NONE',  ( -0.000000000000000000, -0.000000000000000000, -1.000000000000000000 ) ) ;
#251 = DIRECTION ( 'NONE',  ( 0.000000000000000000, 0.000000000000000000, 1.000000000000000000 ) ) ;
#252 = LINE ( 'NONE', #11, #253 ) ;
#253 = VECTOR ( 'NONE', #181, 1000.000000000000000 ) ;
#254 = DATE_TIME_ROLE ( 'creation_date' ) ;
#255 = ADVANCED_BREP_SHAPE_REPRESENTATION ( '7112', ( #272, #55 ), #287 ) ;
#256 =( LENGTH_UNIT ( ) NAMED_UNIT ( * ) SI_UNIT ( .MILLI., .METRE. ) );
#257 = CIRCLE ( 'NONE', #186, 5.000000000000000888 ) ;
#258 = EDGE_CURVE ( 'NONE', #206, #222, #66, .T. ) ;
#259 =( NAMED_UNIT ( * ) PLANE_ANGLE_UNIT ( ) SI_UNIT ( $, .RADIAN. ) );
#260 = DATE_AND_TIME ( #286, #88 ) ;
#261 = ORIENTED_EDGE ( 'NONE', *, *, #249, .F. ) ;
#262 = LOCAL_TIME ( 11, 40, 41.00000000000000000, #63 ) ;
#263 = VERTEX_POINT ( 'NONE', #45 ) ;
#264 = AXIS2_PLACEMENT_3D ( 'NONE', #275, #230, #178 ) ;
#265 = COORDINATED_UNIVERSAL_TIME_OFFSET ( 1, 0, .AHEAD. ) ;
#266 = CARTESIAN_POINT ( 'NONE',  ( -5.000000000000000888, 0.000000000000000000, 505.0000000000000000 ) ) ;
#267 = AXIS2_PLACEMENT_3D ( 'NONE', #10, #250, #180 ) ;
#268 = AXIS2_PLACEMENT_3D ( 'NONE', #229, #13, #200 ) ;
#269 = EDGE_CURVE ( 'NONE', #222, #240, #257, .T. ) ;
#270 = CALENDAR_DATE ( 2022, 20, 6 ) ;
#271 = EDGE_LOOP ( 'NONE', ( #78, #35, #261, #121 ) ) ;
#272 = MANIFOLD_SOLID_BREP ( 'Zaoblit1', #141 ) ;
#273 = DIRECTION ( 'NONE',  ( 0.000000000000000000, 0.000000000000000000, 1.000000000000000000 ) ) ;
#274 = AXIS2_PLACEMENT_3D ( 'NONE', #54, #245, #196 ) ;
#275 = CARTESIAN_POINT ( 'NONE',  ( 0.000000000000000000, 0.000000000000000000, 505.0000000000000000 ) ) ;
#276 = FACE_OUTER_BOUND ( 'NONE', #100, .T. ) ;
#277 = DIRECTION ( 'NONE',  ( 1.000000000000000000, 0.000000000000000000, 0.000000000000000000 ) ) ;
#278 = CARTESIAN_POINT ( 'NONE',  ( -5.000000000000000888, 0.000000000000000000, 505.0000000000000000 ) ) ;
#279 = CARTESIAN_POINT ( 'NONE',  ( 8.000000000000000000, 9.797174393178825657E-16, 5.000000000000000000 ) ) ;
#280 = CARTESIAN_POINT ( 'NONE',  ( 5.000000000000000888, 6.123233995736767268E-16, 505.0000000000000000 ) ) ;
#281 = ADVANCED_FACE ( 'NONE', ( #159 ), #67, .T. ) ;
#282 = PRODUCT_DEFINITION ( 'NEZNÁMÝ', '', #65, #162 ) ;
#283 = PERSON_AND_ORGANIZATION ( #127, #138 ) ;
#284 = CIRCLE ( 'NONE', #268, 8.000000000000000000 ) ;
#285 = DIRECTION ( 'NONE',  ( 1.000000000000000000, 0.000000000000000000, 0.000000000000000000 ) ) ;
#286 = CALENDAR_DATE ( 2022, 20, 6 ) ;
#287 =( GEOMETRIC_REPRESENTATION_CONTEXT ( 3 ) GLOBAL_UNCERTAINTY_ASSIGNED_CONTEXT ( ( #94 ) ) GLOBAL_UNIT_ASSIGNED_CONTEXT ( ( #256, #259, #93 ) ) REPRESENTATION_CONTEXT ( 'NONE', 'WORKASPACE' ) );
#288 = PERSON_AND_ORGANIZATION_ROLE ( 'design_supplier' ) ;
#289 = ORIENTED_EDGE ( 'NONE', *, *, #167, .F. ) ;
#290 = APPLICATION_CONTEXT ( 'configuration controlled 3d designs of mechanical parts and assemblies' ) ;
#291 = PERSON_AND_ORGANIZATION_ROLE ( 'creator' ) ;
#292 = ORIENTED_EDGE ( 'NONE', *, *, #83, .F. ) ;
#293 = EDGE_CURVE ( 'NONE', #240, #222, #164, .T. ) ;
#294 = FACE_OUTER_BOUND ( 'NONE', #271, .T. ) ;
#295 = AXIS2_PLACEMENT_3D ( 'NONE', #36, #125, #199 ) ;
#296 = CC_DESIGN_PERSON_AND_ORGANIZATION_ASSIGNMENT ( #214, #288, ( #65 ) ) ;
#297 = CARTESIAN_POINT ( 'NONE',  ( 0.000000000000000000, 0.000000000000000000, 5.000000000000000000 ) ) ;
#298 = LINE ( 'NONE', #248, #158 ) ;
#299 = DIRECTION ( 'NONE',  ( 0.000000000000000000, 0.000000000000000000, 1.000000000000000000 ) ) ;
#300 = CARTESIAN_POINT ( 'NONE',  ( -5.200000000000001066, 6.368163355566237368E-16, 5.199999999999982414 ) ) ;
#301 = CYLINDRICAL_SURFACE ( 'NONE', #247, 8.000000000000000000 ) ;
#302 = VECTOR ( 'NONE', #47, 1000.000000000000000 ) ;
#303 = DIRECTION ( 'NONE',  ( 1.000000000000000000, 0.000000000000000000, 0.000000000000000000 ) ) ;
#304 = ORIENTED_EDGE ( 'NONE', *, *, #156, .T. ) ;
#305 = MECHANICAL_CONTEXT ( 'NONE', #2, 'mechanical' ) ;
#306 = CIRCLE ( 'NONE', #172, 5.000000000000000888 ) ;
#307 = PERSON_AND_ORGANIZATION ( #127, #138 ) ;
ENDSEC;
END-ISO-10303-21;
