ISO-10303-21;
HEADER;
FILE_DESCRIPTION (( 'STEP AP203' ),
    '1' );
FILE_NAME ('f4de.STEP',
    '2022-06-20T10:14:34',
    ( '' ),
    ( '' ),
    'SwSTEP 2.0',
    'SolidWorks 2019',
    '' );
FILE_SCHEMA (( 'CONFIG_CONTROL_DESIGN' ));
ENDSEC;

DATA;
#1 = CIRCLE ( 'NONE', #250, 1.700000000000000400 ) ;
#2 = ORIENTED_EDGE ( 'NONE', *, *, #219, .T. ) ;
#3 = APPROVAL ( #116, 'NEURÈENÝ' ) ;
#4 = VERTEX_POINT ( 'NONE', #239 ) ;
#5 = DIRECTION ( 'NONE',  ( 0.000000000000000000, 0.000000000000000000, 1.000000000000000000 ) ) ;
#6 = CARTESIAN_POINT ( 'NONE',  ( 0.000000000000000000, 0.000000000000000000, 3.000000000000000000 ) ) ;
#7 = FACE_OUTER_BOUND ( 'NONE', #93, .T. ) ;
#8 = CARTESIAN_POINT ( 'NONE',  ( 3.000000000000000444, 3.673940397442060361E-16, 3.000000000000000000 ) ) ;
#9 = EDGE_CURVE ( 'NONE', #189, #302, #298, .T. ) ;
#10 = CARTESIAN_POINT ( 'NONE',  ( 1.700000000000000400, 0.000000000000000000, 3.199999999999980638 ) ) ;
#11 = APPROVAL_PERSON_ORGANIZATION ( #165, #104, #139 ) ;
#12 = CARTESIAN_POINT ( 'NONE',  ( 0.000000000000000000, 0.000000000000000000, 503.0000000000000000 ) ) ;
#13 = DIRECTION ( 'NONE',  ( 1.000000000000000000, 0.000000000000000000, 0.000000000000000000 ) ) ;
#14 = EDGE_CURVE ( 'NONE', #302, #4, #215, .T. ) ;
#15 = DIRECTION ( 'NONE',  ( 1.000000000000000000, 0.000000000000000000, 0.000000000000000000 ) ) ;
#16 = CIRCLE ( 'NONE', #179, 1.700000000000000400 ) ;
#17 =( NAMED_UNIT ( * ) SI_UNIT ( $, .STERADIAN. ) SOLID_ANGLE_UNIT ( ) );
#18 = ORIENTED_EDGE ( 'NONE', *, *, #143, .F. ) ;
#19 = DATE_AND_TIME ( #281, #264 ) ;
#20 = ADVANCED_BREP_SHAPE_REPRESENTATION ( 'f4de', ( #110, #180 ), #203 ) ;
#21 = PERSON_AND_ORGANIZATION_ROLE ( 'design_owner' ) ;
#22 =( NAMED_UNIT ( * ) PLANE_ANGLE_UNIT ( ) SI_UNIT ( $, .RADIAN. ) );
#23 = ORIENTED_EDGE ( 'NONE', *, *, #9, .F. ) ;
#24 = ORIENTED_EDGE ( 'NONE', *, *, #44, .T. ) ;
#25 = AXIS2_PLACEMENT_3D ( 'NONE', #261, #99, #289 ) ;
#26 = EDGE_LOOP ( 'NONE', ( #251, #125 ) ) ;
#27 = DIRECTION ( 'NONE',  ( 1.000000000000000000, 0.000000000000000000, 0.000000000000000000 ) ) ;
#28 = PRODUCT_DEFINITION ( 'NEZNÁMÝ', '', #85, #253 ) ;
#29 = CARTESIAN_POINT ( 'NONE',  ( 0.000000000000000000, 0.000000000000000000, 3.000000000000000000 ) ) ;
#30 = DIRECTION ( 'NONE',  ( 1.000000000000000000, 0.000000000000000000, 0.000000000000000000 ) ) ;
#31 = PLANE ( 'NONE',  #191 ) ;
#32 = DIRECTION ( 'NONE',  ( -0.000000000000000000, -0.000000000000000000, -1.000000000000000000 ) ) ;
#33 = AXIS2_PLACEMENT_3D ( 'NONE', #237, #196, #217 ) ;
#34 = ADVANCED_FACE ( 'NONE', ( #259 ), #221, .F. ) ;
#35 = DIRECTION ( 'NONE',  ( 1.224646799147353207E-16, 1.000000000000000000, -0.000000000000000000 ) ) ;
#36 = DIRECTION ( 'NONE',  ( -1.000000000000000000, 1.224646799147353207E-16, 0.000000000000000000 ) ) ;
#37 = APPLICATION_PROTOCOL_DEFINITION ( 'international standard', 'config_control_design', 1994, #268 ) ;
#38 = ADVANCED_FACE ( 'NONE', ( #130 ), #98, .T. ) ;
#39 = ORIENTED_EDGE ( 'NONE', *, *, #115, .T. ) ;
#40 = CIRCLE ( 'NONE', #169, 0.2000000000000000944 ) ;
#41 = LOCAL_TIME ( 12, 14, 34.00000000000000000, #166 ) ;
#42 = ADVANCED_FACE ( 'NONE', ( #74, #7 ), #150, .T. ) ;
#43 = APPROVAL_DATE_TIME ( #119, #104 ) ;
#44 = EDGE_CURVE ( 'NONE', #210, #177, #67, .T. ) ;
#45 = ORIENTED_EDGE ( 'NONE', *, *, #260, .F. ) ;
#46 = ORIENTED_EDGE ( 'NONE', *, *, #76, .T. ) ;
#47 = AXIS2_PLACEMENT_3D ( 'NONE', #126, #75, #286 ) ;
#48 = CC_DESIGN_APPROVAL ( #287, ( #85 ) ) ;
#49 = ORIENTED_EDGE ( 'NONE', *, *, #260, .T. ) ;
#50 = DIRECTION ( 'NONE',  ( 0.000000000000000000, 0.000000000000000000, 1.000000000000000000 ) ) ;
#51 = ORIENTED_EDGE ( 'NONE', *, *, #115, .F. ) ;
#52 = COORDINATED_UNIVERSAL_TIME_OFFSET ( 1, 0, .AHEAD. ) ;
#53 = FACE_OUTER_BOUND ( 'NONE', #66, .T. ) ;
#54 = CARTESIAN_POINT ( 'NONE',  ( 3.000000000000000444, 3.673940397442060361E-16, 3.000000000000000000 ) ) ;
#55 = DIRECTION ( 'NONE',  ( 0.000000000000000000, 0.000000000000000000, 1.000000000000000000 ) ) ;
#56 = CARTESIAN_POINT ( 'NONE',  ( 0.000000000000000000, 0.000000000000000000, 503.0000000000000000 ) ) ;
#57 = CARTESIAN_POINT ( 'NONE',  ( 0.000000000000000000, 0.000000000000000000, 3.000000000000000000 ) ) ;
#58 = DATE_AND_TIME ( #277, #135 ) ;
#59 = DIRECTION ( 'NONE',  ( -1.000000000000000000, 0.000000000000000000, 0.000000000000000000 ) ) ;
#60 = ORIENTED_EDGE ( 'NONE', *, *, #158, .F. ) ;
#61 = AXIS2_PLACEMENT_3D ( 'NONE', #56, #32, #83 ) ;
#62 = CC_DESIGN_APPROVAL ( #104, ( #28 ) ) ;
#63 = PERSON_AND_ORGANIZATION ( #252, #299 ) ;
#64 = APPROVAL_ROLE ( '' ) ;
#65 = EDGE_LOOP ( 'NONE', ( #188, #228 ) ) ;
#66 = EDGE_LOOP ( 'NONE', ( #282, #163, #242, #280 ) ) ;
#67 = CIRCLE ( 'NONE', #100, 3.000000000000000444 ) ;
#68 = DATE_AND_TIME ( #123, #274 ) ;
#69 = ORIENTED_EDGE ( 'NONE', *, *, #70, .T. ) ;
#70 = EDGE_CURVE ( 'NONE', #265, #89, #162, .T. ) ;
#71 = CARTESIAN_POINT ( 'NONE',  ( -3.000000000000000444, 0.000000000000000000, 3.000000000000000000 ) ) ;
#72 = DIRECTION ( 'NONE',  ( -0.000000000000000000, -0.000000000000000000, -1.000000000000000000 ) ) ;
#73 = AXIS2_PLACEMENT_3D ( 'NONE', #57, #159, #296 ) ;
#74 = FACE_BOUND ( 'NONE', #285, .T. ) ;
#75 = DIRECTION ( 'NONE',  ( 0.000000000000000000, 0.000000000000000000, 1.000000000000000000 ) ) ;
#76 = EDGE_CURVE ( 'NONE', #177, #265, #103, .T. ) ;
#77 = DIRECTION ( 'NONE',  ( 0.000000000000000000, 0.000000000000000000, 1.000000000000000000 ) ) ;
#78 = DIRECTION ( 'NONE',  ( -0.000000000000000000, -0.000000000000000000, -1.000000000000000000 ) ) ;
#79 = DIRECTION ( 'NONE',  ( -0.000000000000000000, -0.000000000000000000, -1.000000000000000000 ) ) ;
#80 = APPLICATION_CONTEXT ( 'configuration controlled 3d designs of mechanical parts and assemblies' ) ;
#81 = DIRECTION ( 'NONE',  ( 0.000000000000000000, -1.000000000000000000, 0.000000000000000000 ) ) ;
#82 = CC_DESIGN_PERSON_AND_ORGANIZATION_ASSIGNMENT ( #63, #21, ( #109 ) ) ;
#83 = DIRECTION ( 'NONE',  ( -1.000000000000000000, 0.000000000000000000, 0.000000000000000000 ) ) ;
#84 = CIRCLE ( 'NONE', #263, 3.000000000000000444 ) ;
#85 = PRODUCT_DEFINITION_FORMATION_WITH_SPECIFIED_SOURCE ( 'LIBOVOLNÝ', '', #109, .NOT_KNOWN. ) ;
#86 = SECURITY_CLASSIFICATION_LEVEL ( 'unclassified' ) ;
#87 = PERSON_AND_ORGANIZATION ( #252, #299 ) ;
#88 = EDGE_LOOP ( 'NONE', ( #149, #142, #39, #60 ) ) ;
#89 = VERTEX_POINT ( 'NONE', #172 ) ;
#90 = VECTOR ( 'NONE', #147, 1000.000000000000000 ) ;
#91 = APPROVAL_STATUS ( 'not_yet_approved' ) ;
#92 = COORDINATED_UNIVERSAL_TIME_OFFSET ( 1, 0, .AHEAD. ) ;
#93 = EDGE_LOOP ( 'NONE', ( #213, #24 ) ) ;
#94 = ORIENTED_EDGE ( 'NONE', *, *, #14, .F. ) ;
#95 = APPROVAL_PERSON_ORGANIZATION ( #225, #3, #128 ) ;
#96 = CARTESIAN_POINT ( 'NONE',  ( 0.000000000000000000, 0.000000000000000000, 3.199999999999980638 ) ) ;
#97 = APPROVAL_DATE_TIME ( #68, #3 ) ;
#98 = PLANE ( 'NONE',  #33 ) ;
#99 = DIRECTION ( 'NONE',  ( 0.000000000000000000, 0.000000000000000000, 1.000000000000000000 ) ) ;
#100 = AXIS2_PLACEMENT_3D ( 'NONE', #29, #50, #194 ) ;
#101 = CARTESIAN_POINT ( 'NONE',  ( 1.500000000000000222, 1.836970198721030181E-16, 503.0000000000000000 ) ) ;
#102 = EDGE_CURVE ( 'NONE', #177, #210, #84, .T. ) ;
#103 = LINE ( 'NONE', #71, #90 ) ;
#104 = APPROVAL ( #254, 'NEURÈENÝ' ) ;
#105 = CARTESIAN_POINT ( 'NONE',  ( 0.000000000000000000, 0.000000000000000000, 3.000000000000000000 ) ) ;
#106 = CIRCLE ( 'NONE', #279, 1.500000000000000222 ) ;
#107 = CARTESIAN_POINT ( 'NONE',  ( 0.000000000000000000, 0.000000000000000000, 3.199999999999980638 ) ) ;
#108 = SECURITY_CLASSIFICATION ( '', '', #86 ) ;
#109 = PRODUCT ( 'f4de', 'f4de', '', ( #121 ) ) ;
#110 = MANIFOLD_SOLID_BREP ( 'Zaoblit1', #129 ) ;
#111 = CARTESIAN_POINT ( 'NONE',  ( 0.000000000000000000, 0.000000000000000000, 503.0000000000000000 ) ) ;
#112 = LINE ( 'NONE', #273, #290 ) ;
#113 = PERSON_AND_ORGANIZATION ( #252, #299 ) ;
#114 = AXIS2_PLACEMENT_3D ( 'NONE', #214, #236, #193 ) ;
#115 = EDGE_CURVE ( 'NONE', #4, #267, #270, .T. ) ;
#116 = APPROVAL_STATUS ( 'not_yet_approved' ) ;
#117 = DATE_TIME_ROLE ( 'creation_date' ) ;
#118 = PRODUCT_DEFINITION_SHAPE ( 'NONE', 'NONE',  #28 ) ;
#119 = DATE_AND_TIME ( #204, #208 ) ;
#120 = APPROVAL_PERSON_ORGANIZATION ( #301, #287, #64 ) ;
#121 = MECHANICAL_CONTEXT ( 'NONE', #268, 'mechanical' ) ;
#122 = CC_DESIGN_DATE_AND_TIME_ASSIGNMENT ( #19, #117, ( #28 ) ) ;
#123 = CALENDAR_DATE ( 2022, 20, 6 ) ;
#124 = DIRECTION ( 'NONE',  ( 1.000000000000000000, 0.000000000000000000, 0.000000000000000000 ) ) ;
#125 = ORIENTED_EDGE ( 'NONE', *, *, #212, .F. ) ;
#126 = CARTESIAN_POINT ( 'NONE',  ( 0.000000000000000000, 0.000000000000000000, 3.000000000000000000 ) ) ;
#127 = ORIENTED_EDGE ( 'NONE', *, *, #241, .F. ) ;
#128 = APPROVAL_ROLE ( '' ) ;
#129 = CLOSED_SHELL ( 'NONE', ( #34, #257, #297, #170, #42, #266, #138, #38, #248 ) ) ;
#130 = FACE_OUTER_BOUND ( 'NONE', #65, .T. ) ;
#131 = CARTESIAN_POINT ( 'NONE',  ( -1.700000000000000400, 2.081899558550500773E-16, 2.999999999999990674 ) ) ;
#132 = DIRECTION ( 'NONE',  ( -0.000000000000000000, -0.000000000000000000, -1.000000000000000000 ) ) ;
#133 = CIRCLE ( 'NONE', #140, 0.2000000000000000944 ) ;
#134 = CARTESIAN_POINT ( 'NONE',  ( -3.000000000000000444, 0.000000000000000000, 0.000000000000000000 ) ) ;
#135 = LOCAL_TIME ( 12, 14, 34.00000000000000000, #184 ) ;
#136 = DIRECTION ( 'NONE',  ( 1.000000000000000000, 0.000000000000000000, 0.000000000000000000 ) ) ;
#137 = DIRECTION ( 'NONE',  ( 1.000000000000000000, 0.000000000000000000, 0.000000000000000000 ) ) ;
#138 = ADVANCED_FACE ( 'NONE', ( #175 ), #246, .T. ) ;
#139 = APPROVAL_ROLE ( '' ) ;
#140 = AXIS2_PLACEMENT_3D ( 'NONE', #269, #35, #36 ) ;
#141 =( LENGTH_UNIT ( ) NAMED_UNIT ( * ) SI_UNIT ( .MILLI., .METRE. ) );
#142 = ORIENTED_EDGE ( 'NONE', *, *, #14, .T. ) ;
#143 = EDGE_CURVE ( 'NONE', #267, #148, #133, .T. ) ;
#144 = CARTESIAN_POINT ( 'NONE',  ( 0.000000000000000000, 0.000000000000000000, 0.000000000000000000 ) ) ;
#145 = AXIS2_PLACEMENT_3D ( 'NONE', #205, #305, #59 ) ;
#146 = DATE_AND_TIME ( #255, #41 ) ;
#147 = DIRECTION ( 'NONE',  ( -0.000000000000000000, -0.000000000000000000, -1.000000000000000000 ) ) ;
#148 = VERTEX_POINT ( 'NONE', #131 ) ;
#149 = ORIENTED_EDGE ( 'NONE', *, *, #276, .F. ) ;
#150 = PLANE ( 'NONE',  #47 ) ;
#151 = ORIENTED_EDGE ( 'NONE', *, *, #230, .F. ) ;
#152 = AXIS2_PLACEMENT_3D ( 'NONE', #220, #247, #137 ) ;
#153 = CYLINDRICAL_SURFACE ( 'NONE', #61, 1.500000000000000222 ) ;
#154 = DIRECTION ( 'NONE',  ( 0.000000000000000000, 0.000000000000000000, -1.000000000000000000 ) ) ;
#155 = DIRECTION ( 'NONE',  ( 0.000000000000000000, 0.000000000000000000, 1.000000000000000000 ) ) ;
#156 = VECTOR ( 'NONE', #132, 1000.000000000000000 ) ;
#157 = DIRECTION ( 'NONE',  ( 0.000000000000000000, 0.000000000000000000, 1.000000000000000000 ) ) ;
#158 = EDGE_CURVE ( 'NONE', #189, #267, #112, .T. ) ;
#159 = DIRECTION ( 'NONE',  ( -0.000000000000000000, -0.000000000000000000, -1.000000000000000000 ) ) ;
#160 = CC_DESIGN_PERSON_AND_ORGANIZATION_ASSIGNMENT ( #227, #229, ( #28 ) ) ;
#161 = DATE_TIME_ROLE ( 'classification_date' ) ;
#162 = CIRCLE ( 'NONE', #114, 3.000000000000000444 ) ;
#163 = ORIENTED_EDGE ( 'NONE', *, *, #185, .T. ) ;
#164 = TOROIDAL_SURFACE ( 'NONE', #211, 1.700000000000000400, 0.2000000000000000111 ) ;
#165 = PERSON_AND_ORGANIZATION ( #252, #299 ) ;
#166 = COORDINATED_UNIVERSAL_TIME_OFFSET ( 1, 0, .AHEAD. ) ;
#167 = ORIENTED_EDGE ( 'NONE', *, *, #219, .F. ) ;
#168 = DIRECTION ( 'NONE',  ( 0.000000000000000000, 0.000000000000000000, 1.000000000000000000 ) ) ;
#169 = AXIS2_PLACEMENT_3D ( 'NONE', #10, #81, #154 ) ;
#170 = ADVANCED_FACE ( 'NONE', ( #218 ), #200, .T. ) ;
#171 = ORIENTED_EDGE ( 'NONE', *, *, #185, .F. ) ;
#172 = CARTESIAN_POINT ( 'NONE',  ( 3.000000000000000444, 3.673940397442060361E-16, 0.000000000000000000 ) ) ;
#173 = SHAPE_DEFINITION_REPRESENTATION ( #118, #20 ) ;
#174 = DIRECTION ( 'NONE',  ( 0.000000000000000000, 0.000000000000000000, 1.000000000000000000 ) ) ;
#175 = FACE_OUTER_BOUND ( 'NONE', #249, .T. ) ;
#176 = CC_DESIGN_DATE_AND_TIME_ASSIGNMENT ( #58, #161, ( #108 ) ) ;
#177 = VERTEX_POINT ( 'NONE', #294 ) ;
#178 = CARTESIAN_POINT ( 'NONE',  ( 1.700000000000000400, 0.000000000000000000, 2.999999999999990674 ) ) ;
#179 = AXIS2_PLACEMENT_3D ( 'NONE', #245, #79, #182 ) ;
#180 = AXIS2_PLACEMENT_3D ( 'NONE', #144, #168, #209 ) ;
#181 = LINE ( 'NONE', #8, #156 ) ;
#182 = DIRECTION ( 'NONE',  ( 1.000000000000000000, 0.000000000000000000, 0.000000000000000000 ) ) ;
#183 = CARTESIAN_POINT ( 'NONE',  ( 0.000000000000000000, 0.000000000000000000, 0.000000000000000000 ) ) ;
#184 = COORDINATED_UNIVERSAL_TIME_OFFSET ( 1, 0, .AHEAD. ) ;
#185 = EDGE_CURVE ( 'NONE', #210, #89, #181, .T. ) ;
#186 = PERSON_AND_ORGANIZATION_ROLE ( 'design_supplier' ) ;
#187 = AXIS2_PLACEMENT_3D ( 'NONE', #291, #174, #30 ) ;
#188 = ORIENTED_EDGE ( 'NONE', *, *, #9, .T. ) ;
#189 = VERTEX_POINT ( 'NONE', #271 ) ;
#190 = ORIENTED_EDGE ( 'NONE', *, *, #158, .T. ) ;
#191 = AXIS2_PLACEMENT_3D ( 'NONE', #183, #155, #197 ) ;
#192 = DIRECTION ( 'NONE',  ( 0.000000000000000000, 0.000000000000000000, 1.000000000000000000 ) ) ;
#193 = DIRECTION ( 'NONE',  ( 1.000000000000000000, 0.000000000000000000, 0.000000000000000000 ) ) ;
#194 = DIRECTION ( 'NONE',  ( 1.000000000000000000, 0.000000000000000000, 0.000000000000000000 ) ) ;
#195 = CIRCLE ( 'NONE', #238, 1.500000000000000222 ) ;
#196 = DIRECTION ( 'NONE',  ( 0.000000000000000000, 0.000000000000000000, 1.000000000000000000 ) ) ;
#197 = DIRECTION ( 'NONE',  ( 1.000000000000000000, 0.000000000000000000, -0.000000000000000000 ) ) ;
#198 = FACE_OUTER_BOUND ( 'NONE', #88, .T. ) ;
#199 = DIRECTION ( 'NONE',  ( 1.000000000000000000, 0.000000000000000000, 0.000000000000000000 ) ) ;
#200 = CYLINDRICAL_SURFACE ( 'NONE', #73, 3.000000000000000444 ) ;
#201 = PRODUCT_RELATED_PRODUCT_CATEGORY ( 'detail', '', ( #109 ) ) ;
#202 = PERSON_AND_ORGANIZATION_ROLE ( 'creator' ) ;
#203 =( GEOMETRIC_REPRESENTATION_CONTEXT ( 3 ) GLOBAL_UNCERTAINTY_ASSIGNED_CONTEXT ( ( #231 ) ) GLOBAL_UNIT_ASSIGNED_CONTEXT ( ( #141, #22, #17 ) ) REPRESENTATION_CONTEXT ( 'NONE', 'WORKASPACE' ) );
#204 = CALENDAR_DATE ( 2022, 20, 6 ) ;
#205 = CARTESIAN_POINT ( 'NONE',  ( 0.000000000000000000, 0.000000000000000000, 3.000000000000000000 ) ) ;
#206 = COORDINATED_UNIVERSAL_TIME_OFFSET ( 1, 0, .AHEAD. ) ;
#207 = ORIENTED_EDGE ( 'NONE', *, *, #241, .T. ) ;
#208 = LOCAL_TIME ( 12, 14, 34.00000000000000000, #92 ) ;
#209 = DIRECTION ( 'NONE',  ( 1.000000000000000000, 0.000000000000000000, 0.000000000000000000 ) ) ;
#210 = VERTEX_POINT ( 'NONE', #54 ) ;
#211 = AXIS2_PLACEMENT_3D ( 'NONE', #107, #55, #13 ) ;
#212 = EDGE_CURVE ( 'NONE', #89, #265, #284, .T. ) ;
#213 = ORIENTED_EDGE ( 'NONE', *, *, #102, .T. ) ;
#214 = CARTESIAN_POINT ( 'NONE',  ( 0.000000000000000000, 0.000000000000000000, 0.000000000000000000 ) ) ;
#215 = LINE ( 'NONE', #101, #233 ) ;
#216 = CC_DESIGN_APPROVAL ( #3, ( #108 ) ) ;
#217 = DIRECTION ( 'NONE',  ( 1.000000000000000000, 0.000000000000000000, -0.000000000000000000 ) ) ;
#218 = FACE_OUTER_BOUND ( 'NONE', #262, .T. ) ;
#219 = EDGE_CURVE ( 'NONE', #235, #148, #1, .T. ) ;
#220 = CARTESIAN_POINT ( 'NONE',  ( 0.000000000000000000, 0.000000000000000000, 0.000000000000000000 ) ) ;
#221 = TOROIDAL_SURFACE ( 'NONE', #303, 1.700000000000000400, 0.2000000000000000111 ) ;
#222 = CC_DESIGN_PERSON_AND_ORGANIZATION_ASSIGNMENT ( #87, #278, ( #108 ) ) ;
#223 = FACE_OUTER_BOUND ( 'NONE', #26, .T. ) ;
#224 = DIRECTION ( 'NONE',  ( -0.000000000000000000, -0.000000000000000000, -1.000000000000000000 ) ) ;
#225 = PERSON_AND_ORGANIZATION ( #252, #299 ) ;
#226 = ORIENTED_EDGE ( 'NONE', *, *, #143, .T. ) ;
#227 = PERSON_AND_ORGANIZATION ( #252, #299 ) ;
#228 = ORIENTED_EDGE ( 'NONE', *, *, #276, .T. ) ;
#229 = PERSON_AND_ORGANIZATION_ROLE ( 'creator' ) ;
#230 = EDGE_CURVE ( 'NONE', #148, #235, #16, .T. ) ;
#231 = UNCERTAINTY_MEASURE_WITH_UNIT (LENGTH_MEASURE( 1.000000000000000082E-05 ), #141, 'distance_accuracy_value', 'NONE');
#232 = CARTESIAN_POINT ( 'NONE',  ( 1.500000000000000222, 1.836970198721030181E-16, 503.0000000000000000 ) ) ;
#233 = VECTOR ( 'NONE', #72, 1000.000000000000000 ) ;
#234 = APPROVAL_DATE_TIME ( #146, #287 ) ;
#235 = VERTEX_POINT ( 'NONE', #178 ) ;
#236 = DIRECTION ( 'NONE',  ( 0.000000000000000000, 0.000000000000000000, 1.000000000000000000 ) ) ;
#237 = CARTESIAN_POINT ( 'NONE',  ( 0.000000000000000000, 0.000000000000000000, 503.0000000000000000 ) ) ;
#238 = AXIS2_PLACEMENT_3D ( 'NONE', #295, #157, #136 ) ;
#239 = CARTESIAN_POINT ( 'NONE',  ( 1.500000000000000222, 1.836970198721030181E-16, 3.199999999999980638 ) ) ;
#240 = EDGE_LOOP ( 'NONE', ( #45, #226, #167, #127 ) ) ;
#241 = EDGE_CURVE ( 'NONE', #4, #235, #40, .T. ) ;
#242 = ORIENTED_EDGE ( 'NONE', *, *, #212, .T. ) ;
#243 = CC_DESIGN_PERSON_AND_ORGANIZATION_ASSIGNMENT ( #113, #202, ( #85 ) ) ;
#244 = CYLINDRICAL_SURFACE ( 'NONE', #145, 3.000000000000000444 ) ;
#245 = CARTESIAN_POINT ( 'NONE',  ( 0.000000000000000000, 0.000000000000000000, 3.000000000000000000 ) ) ;
#246 = CYLINDRICAL_SURFACE ( 'NONE', #258, 1.500000000000000222 ) ;
#247 = DIRECTION ( 'NONE',  ( 0.000000000000000000, 0.000000000000000000, 1.000000000000000000 ) ) ;
#248 = ADVANCED_FACE ( 'NONE', ( #272 ), #164, .F. ) ;
#249 = EDGE_LOOP ( 'NONE', ( #94, #23, #190, #49 ) ) ;
#250 = AXIS2_PLACEMENT_3D ( 'NONE', #105, #224, #15 ) ;
#251 = ORIENTED_EDGE ( 'NONE', *, *, #70, .F. ) ;
#252 = PERSON ( 'NEURÈENÝ', 'NEURÈENÝ', 'NEURÈENÝ', ('NEURÈENÝ'), ('NEURÈENÝ'), ('NEURÈENÝ') ) ;
#253 = DESIGN_CONTEXT ( 'detailed design', #80, 'design' ) ;
#254 = APPROVAL_STATUS ( 'not_yet_approved' ) ;
#255 = CALENDAR_DATE ( 2022, 20, 6 ) ;
#256 = EDGE_LOOP ( 'NONE', ( #18, #51, #207, #151 ) ) ;
#257 = ADVANCED_FACE ( 'NONE', ( #198 ), #153, .T. ) ;
#258 = AXIS2_PLACEMENT_3D ( 'NONE', #111, #292, #275 ) ;
#259 = FACE_OUTER_BOUND ( 'NONE', #240, .T. ) ;
#260 = EDGE_CURVE ( 'NONE', #267, #4, #195, .T. ) ;
#261 = CARTESIAN_POINT ( 'NONE',  ( 0.000000000000000000, 0.000000000000000000, 3.199999999999980638 ) ) ;
#262 = EDGE_LOOP ( 'NONE', ( #171, #306, #46, #69 ) ) ;
#263 = AXIS2_PLACEMENT_3D ( 'NONE', #6, #5, #124 ) ;
#264 = LOCAL_TIME ( 12, 14, 34.00000000000000000, #206 ) ;
#265 = VERTEX_POINT ( 'NONE', #134 ) ;
#266 = ADVANCED_FACE ( 'NONE', ( #223 ), #31, .F. ) ;
#267 = VERTEX_POINT ( 'NONE', #293 ) ;
#268 = APPLICATION_CONTEXT ( 'configuration controlled 3d designs of mechanical parts and assemblies' ) ;
#269 = CARTESIAN_POINT ( 'NONE',  ( -1.700000000000000400, 2.081899558550500773E-16, 3.199999999999980638 ) ) ;
#270 = CIRCLE ( 'NONE', #25, 1.500000000000000222 ) ;
#271 = CARTESIAN_POINT ( 'NONE',  ( -1.500000000000000222, 0.000000000000000000, 503.0000000000000000 ) ) ;
#272 = FACE_OUTER_BOUND ( 'NONE', #256, .T. ) ;
#273 = CARTESIAN_POINT ( 'NONE',  ( -1.500000000000000222, 0.000000000000000000, 503.0000000000000000 ) ) ;
#274 = LOCAL_TIME ( 12, 14, 34.00000000000000000, #52 ) ;
#275 = DIRECTION ( 'NONE',  ( -1.000000000000000000, 0.000000000000000000, 0.000000000000000000 ) ) ;
#276 = EDGE_CURVE ( 'NONE', #302, #189, #106, .T. ) ;
#277 = CALENDAR_DATE ( 2022, 20, 6 ) ;
#278 = PERSON_AND_ORGANIZATION_ROLE ( 'classification_officer' ) ;
#279 = AXIS2_PLACEMENT_3D ( 'NONE', #12, #77, #199 ) ;
#280 = ORIENTED_EDGE ( 'NONE', *, *, #76, .F. ) ;
#281 = CALENDAR_DATE ( 2022, 20, 6 ) ;
#282 = ORIENTED_EDGE ( 'NONE', *, *, #44, .F. ) ;
#283 = CC_DESIGN_PERSON_AND_ORGANIZATION_ASSIGNMENT ( #300, #186, ( #85 ) ) ;
#284 = CIRCLE ( 'NONE', #152, 3.000000000000000444 ) ;
#285 = EDGE_LOOP ( 'NONE', ( #2, #288 ) ) ;
#286 = DIRECTION ( 'NONE',  ( 1.000000000000000000, 0.000000000000000000, -0.000000000000000000 ) ) ;
#287 = APPROVAL ( #91, 'NEURÈENÝ' ) ;
#288 = ORIENTED_EDGE ( 'NONE', *, *, #230, .T. ) ;
#289 = DIRECTION ( 'NONE',  ( 1.000000000000000000, 0.000000000000000000, 0.000000000000000000 ) ) ;
#290 = VECTOR ( 'NONE', #78, 1000.000000000000000 ) ;
#291 = CARTESIAN_POINT ( 'NONE',  ( 0.000000000000000000, 0.000000000000000000, 503.0000000000000000 ) ) ;
#292 = DIRECTION ( 'NONE',  ( -0.000000000000000000, -0.000000000000000000, -1.000000000000000000 ) ) ;
#293 = CARTESIAN_POINT ( 'NONE',  ( -1.500000000000000222, 0.000000000000000000, 3.199999999999980638 ) ) ;
#294 = CARTESIAN_POINT ( 'NONE',  ( -3.000000000000000444, 0.000000000000000000, 3.000000000000000000 ) ) ;
#295 = CARTESIAN_POINT ( 'NONE',  ( 0.000000000000000000, 0.000000000000000000, 3.199999999999980638 ) ) ;
#296 = DIRECTION ( 'NONE',  ( -1.000000000000000000, 0.000000000000000000, 0.000000000000000000 ) ) ;
#297 = ADVANCED_FACE ( 'NONE', ( #53 ), #244, .T. ) ;
#298 = CIRCLE ( 'NONE', #187, 1.500000000000000222 ) ;
#299 = ORGANIZATION ( 'NEURÈENÝ', 'NEURÈENÝ', '' ) ;
#300 = PERSON_AND_ORGANIZATION ( #252, #299 ) ;
#301 = PERSON_AND_ORGANIZATION ( #252, #299 ) ;
#302 = VERTEX_POINT ( 'NONE', #232 ) ;
#303 = AXIS2_PLACEMENT_3D ( 'NONE', #96, #192, #27 ) ;
#304 = CC_DESIGN_SECURITY_CLASSIFICATION ( #108, ( #85 ) ) ;
#305 = DIRECTION ( 'NONE',  ( -0.000000000000000000, -0.000000000000000000, -1.000000000000000000 ) ) ;
#306 = ORIENTED_EDGE ( 'NONE', *, *, #102, .F. ) ;
#307 = APPLICATION_PROTOCOL_DEFINITION ( 'international standard', 'config_control_design', 1994, #80 ) ;
ENDSEC;
END-ISO-10303-21;
